Twin (tablature)

MuseWiki, wiki for the band Muse
Jump to: navigation, search
Intro
E|---------------------------------9-8-----------8-6----------|
B|-----8---8---8--10-10(b)----------------------------6/8-----|
G|-------7---7--------------6/7--7-------7-6--6---------------|
D|------------------------------------------------------------|
A|------------------------------------------------------------|
E|------------------------------------------------------------|


Verse
E|------------------------------------------------------------------------------------|
B|-----8---8---8---8---10---10---10---10---11---11---11---11---11---11---11---11------|
G|-------7---7---7---7----7----7----7----7----7----7----7----7----7----7----7---------|
D|------------------------------------------------------------------------------------|
A|------------------------------------------------------------------------------------|
E|------------------------------------------------------------------------------------|

Chorus
E|-------------------3-3-3-3------|
B|-------------------4-4-4-4------|
G|---------1--2--3---5-5-5-5------|
D|------5------------5-5-5-5------|
A|--------------------------------|
E|--------------------------------|


Outro
E|----------------------------------------------------------------|
B|-----11-11--8-8--10h8-----11-11---------------------------------|
G|-----10-10------------8---10-10---------------------------------|
D|-----9--9-----------------9--9---8-8-8h10-----------------------|
A|-----10-10----------------10-10---------10----------------------|
E|----------------------------------------------------------------|


**Tabbed by TheEye**