The Handler (tablature)

MuseWiki, wiki for the band Muse
Jump to: navigation, search

Guitar tab

Tabbed by Priad-luabe

Tuning: dADGBE

Intro 

E|------------------------------------------------------------------
B|------------------------------------------------------------------
G|------------------------------------------------------------------
D|------------------------------------------------------------------
A|------------------------------------------------------------------
D|/12-12-12-12\---/12-12-12-12\---/12-12-12-12\---/12-12-12-12-12-12

Main Riff x2

E|---------------------------------------
B|---------------------------------------
G|---------------------------------------
D|---------------------------------------
A|---------------------------8-----7-----
D|/12p0-0-0-/3-3-3-3/7-7-7-----8~~~--7~~~

Verse x 4

E|---------------------------------------
B|---------------------------------------
G|---------------------------------------
D|---------------------------------------
A|---------------------------8-----7-----
D|/12p0-0-0-/3-3-3-3/7-7-7-----8~~~--7~~~


Chorus 

E|--------------------------------
B|--------------------------------
G|----------------3---2---1---2---
D|--------------------------------
A|5---5---5---7-----5---3---2---0-
D|--5---3---2---7-----------------

Riff x2

E|-----------------------------------------
B|-----------------------------------------
G|-----------------------------------------
D|-----------------------------------------
A|--------------------------xxxx-8--xxxx-7-
D|/12p0-0-0-/3-3-3-3/7-7-7--xxxx-8--xxxx-7-

Verse x 4

E|---------------------------------------
B|---------------------------------------
G|---------------------------------------
D|---------------------------------------
A|---------------------------8---7-------
D|/12p0-0-0-/3-3-3-3/7-7-7---8---7-------

Chorus 

E|--------------------------------
B|--------------------------------
G|----------------3---2---1---2---
D|--------------------------------
A|5---5---5---7-----5---3---2---0-
D|--5---3---2---7-----------------

E|-----------------------------------------------
B|-----------------------------------------------
G|-----------------------------------------------
D|-----------------------------------------------
A|--------------------------------xxxx-8--xxxx-7-
D|/12-12-12p0-0-0-/3-3-3-3/7-7-7--xxxx-8--xxxx-7-

E|---------------------------------------------
B|---------------------------------------------
G|---------------------------------------------
D|--------------------------------8-7-6-7------
A|----------------------------5-8---------7-4--
D|/12p0-0-0-/3-3-3-3/7-7-7--8-----------------7

Bridge (x12?) 

E|-------------------------------------------------------------------------------------
B|-------------------------------------------------------------------------------------
G|-------------------------------------------------------------------------------------
D|h11p0h12p0h11p0h12p0h14p0h12p0h14p0h15p0h14p0h15p0h17p0h15p0h17p0h19p0h17p0h19p0h20p0
A|-------------------------------------------------------------------------------------
D|-------------------------------------------------------------------------------------


E|---------------------------------------------------------------------------
B|---------------------------------------------------------------------------
G|---------------------------------------------------------------------------
D|h19p0h17p0h19p0h17p0h15p0h17p0h15p0h14p0h15p0h14p0h12p0h14p0h12p0h11p0h12p0
A|---------------------------------------------------------------------------
D|---------------------------------------------------------------------------

Bridge 2

    I won't let you control     my feelings any more
e|---------------------------------------------------------
B|------------------------------------------5--------------
G|-7-------------------9-----------10----------------------
D|---------------------------------------------------------
A|-5-------------------7-----------8--------4--------------
D|---------------------------------------------------------


  and I will no longer do       as I         am told
e|---------------------------------------------------------
B|----------------6---------8---------8-------------10-----
G|---------------------------------------------------------
D|------------------------------------5-------------7------
A|----------------5---------5------------------------------
D|---------------------------------------------------------


  and I am no longer afraid     to walk alone
e|---------------------------------------------------------
B|----------10-------------------------10------------------
G|----------9--------------------------10------------------
D|----------7--------------------------7-------------------
A|---------------------------------------------------------
D|---------------------------------------------------------


  let me go                     let me be
e|---------------------------------------------------------
B|---------------------------------------------------------
G|---10---------------12--------------14-------------------
D|---8----------------8---------------10-------------------
A|---------------------------------------------------------
D|---------------------------------------------------------


  I'm escaping                  from your grip
e|---------------------------------------------------------
B|---------------------------------------15----------------
G|-----14--------------------------------14----------------
D|-----11--------------------------------12----------------
A|---------------------------------------------------------
D|---------------------------------------------------------


  you will never                own me again
e|---------------------------------------------------------
B|---------15-------------------14-------------------------
G|---------14-------------------14-------------------------
D|---------14-------------------14-------------------------
A|---------------------------------------------------------
D|---------------------------------------------------------


Outro


E|---------------------------------------
B|---------------------------------------
G|---------------------------------------
D|---------------------------------------
A|---------------------------8-----7-----
D|/12p0-0-0-/3-3-3-3/7-7-7-----8~~~--7~~~


E|---------------------------------------
B|---------------------------------------
G|---------------------------------------
D|---------------------------------------
A|---------------------------8-----7-----
D|/12p0-0-0-/3-3-3-3/7-7-7-----8~~~--7~~~

E|----------------------------------------------------------
B|----------------------------------------------------------
G|----------------------------------------------------------
D|----------------------------------------------------------
A|----------------------------------------------------------
D|/12-12-12\-0-0-0-/12-12-12\-0-0-0-/12-12-12\-0-0-0-0-0-0-0