Sunburn (tablature)

MuseWiki, wiki for the band Muse
Jump to: navigation, search

Hullabaloo Live Version

Intro/Verse Riff (w/delay about 280ms):

  Em           Amadd9         C             Amadd9
|---7-----7------7-----7----|----8-----8------7-----7----|
|-----8-----8------5-----5--|------8-----8------5-----5--|
|-------9------------5------|--------9------------5------|
|-9------------7------------|-10------------7------------|
|---------------------------|----------------------------|
|---------------------------|----------------------------|

Come waste your millions here,
Secretly she sneers.
Another corporate show,
A guilty conscience grows.

And I'll feel a guilty conscience grow,
And I'll feel a guilty conscience grow.

Chorus:

  Am6        Am7      Em7
|-------------------|-------------------|
|-5-5-5-5-x-5-5-5-5-|-5-5-5-5-x-5-5-5-5-|
|-5-5-5-5-x-5-5-5-5-|-4-4-4-4-x-4-4-4-4-|
|-4-4-4-4-x-4-5-5-5-|-5-5-5-5-x-5-5-5-5-|
|-0-0-0-0-x-0-0-0-0-|-x-x-x-x-x-x-x-x-x-|
|-------------------|-0-0-0-0-x-0-0-0-0-|

She burns like the sun
and I can't look away,
And she'll burn our horizons
make no mistakes.

Verse:

Come let the truth be shared,
No-one ever dared to break,
These endless lies,
Secretly she cries.

Chorus:

She burns like the sun,
And I can't look away,
And she'll burn our horizons,
Make no mistakes.

Solo:

Tremolo Picking - Use whammy pedal set to 2 octaves up to gradually increase pitch
|---12-----------|---12--------|---12--------|---12----|
|----------------|-------------|-------------|---------|
|---9------------|---9---------|---9---------|---9-----|
|----------------|-------------|-------------|---------|
|----------------|-------------|-------------|---------|
|----------------|-------------|-------------|---------|

Tremolo Picking - With whammy set to 2 octaves up
|---12--------|--12---15--14--|--14---12--11----|-------8--7\------|
|-------------|---------------|-----------------|------------------|
|---9---------|--9----12--11--|--11----9---8----|-------5--4\------|
|-------------|---------------|-----------------|------------------|
|-------------|---------------|-----------------|------------------|
|-------------|---------------|-----------------|------------------|

|--------------|----------------|--------------|---------------|
|--------------|----------------|--------------|---------------|
|-----/9-------|--------12---11-|--11---9--8---|------5--4\----|
|--------------|----------------|--------------|---------------|
|-----/7-------|--------10---9--|---9---7--6---|------3--2\----|
|--------------|----------------|--------------|---------------|

Chorus:

And I'll hide from the world,
Behind a broken frame,
And I'll run forever,
I can't face the shame.

And I'll hide from the world,
Behind a broken frame,
And I'll run forever,
I can't face the shame.

Outro (w/whammy 2 octaves up):
|----------------------------------------------------|
|----------------------------------------------------|
|-16-13------------------------13-16-13-16-13--------|
|-------15-12-----------12-15------------------15-12-|
|-------------14-11-14-------------------------------|
|----------------------------------------------------|

|----------------------------------------------------|
|----------------------------------------------------|
|-15-12------------------------12-15-12-15-12--------|
|-------14-11-----------11-14------------------14-11-|
|-------------13-10-13-------------------------------|
|----------------------------------------------------|

continue moving the riff chromatically down until
|----------------------------------------------------|
|----------------------------------------------------|
|-9-6-------------------6-9-6-9-6-9-6-9\-------------|
|------8-5---------5-8-------------------------------|
|-----------7-4-7------------------------------------|
|----------------------------------------------------|


Back to Tablature