Sober (tablature)

MuseWiki, wiki for the band Muse
Jump to: navigation, search
Muse
Sober
sandruff@mailcity.com

Intro:(distortion and pitch shift down an octave)

e--------------------------------------------
b-12---12---12---12---12---12---12---12------
g-------------------------------------------- x2
d----9----9----9----9----9----9----9----9----
a--------------------------------------------
E--------------------------------------------

Verse:

e-----------------------------------------
b-12---12---12---12-----------------------
g---------------------10---10---10---10---
d----9----9----9----9----9----9----9----9-
a-----------------------------------------
E-----------------------------------------

e-------------------------------------------
b---12---12---12---12-----------------------
g-----------------------13---13---13---13---
d-9----9----9----9----9----9----9----9----9-
a-------------------------------------------
E-------------------------------------------

Link:

e------------------
b------------------
g-0-7--x--7--6--5--
d-0-x--x--x--x--x--
a-0-5--x--5--4--3--
E-0----------------

Chorus:

e----------------------------------------
b----------------------------------------
g---------------------------------------- x6
d------2--------4-------5----------------
a----------------------------------------
E-0--0---0-2--2---3^0-3---3^0-3^0-3-2-1--

Link 2:(guitar synth with pitch shift up an octave)

e----------------------------------------------------------
b-/-12---15-15-15-15-15-15-15-15-14---12--16--12--14--12---
g----------------------------------------------------------
d----------------------------------------------------------
a----------------------------------------------------------
E----------------------------------------------------------

Solo:(with filter effects)

e----------------------------
b----------------------------
g-4-4-4---8b----------------- x4 then 
d-4-4-4--------7--7-7-0-6b---
a-2-2-2----------------------
E-2-2-2----------------------

e----------------------------
b----------------------------
g--------6b------------------
d-----2------5--5-5-0-4b-----
a----------------------------
E-0--------------------------


Go back to tablature