Sign o' the Times (tablature)

MuseWiki, wiki for the band Muse
Jump to: navigation, search

Cover of Sign o' the Times - Prince


Intro
C|-------------------------------------|
A|-------------------------------------|
F|-------------------------------------|x4
C|-------------------------------------|
D|-------------------------------------|
C|---12-0--0-3-----12--0-0---3---------|

Verse:nothing

Pre chorus?
C|-------------------------------------|
A|-------------------------------------|
F|-------------------------------------|x2
C|-------------------------------------|
D|-------------------------------------|
C|---12-0--0-3-----12--0-0---3---------|

C|------------------------------------|------------------------------------|
A|-----10-10-----------10-10----------|-----10-10---------x-10-x-10--------|
F|-----10-10-----------10-10----------|-----10-10---------x-10-x-10--------|
C|------------10~--------------10~----|------------10~---------------x-12~-|
D|------------------------------------|------------------------------------|
C|------------------------------------|------------------------------------|

Chorus
C|---------------------------------------------------|
A|---------------------------------------------------|
F|---10----------7---------10-----9----7-------12----|
C|---8-----------5---------8------7----5-------10----|
D|---8-----------5---------8------7----5-------10----|
C|---8-----------5---------8------7----5-------10----|

C|-------------------------------------|
A|-------------------------------------|
F|-------------------------------------|x2
C|-------------------------------------|
D|-------------------------------------|
C|---12-0--0-3-----12--0-0---3---------|


C|-------13------------------13-----------------------|
A|-13------------------13-----------------------------|
F|----10------------------10--------------------------|x2
C|----------------------------------------------------|
D|----------------------------------------------------|
C|----------12-0--0-3------------12---0-0---3---------|


last verse:
C|------------------------------------------|
A|--10--------------------------------------|
F|--10--------------------------------------|
C|------10--x-10---12p10h12p10h12p10h12p10--|
D|------------------------------------------|
C|------------------------------------------|


End bit
C|----------------------------------------|
A|----------------------------------------|
F|----------------------------------------|
C|-0--0---3---5-----------------------0---|
D|-0--0---3---5----*pick scrapes*-----0---|
C|-0--0---3---5-----------------------0---|

The tab is original of ThymeFlies42 (Youtube User). I only put the tab here. Cover of ThymeFlies42 :http://www.youtube.com/watch?v=kU9yOJxq0is&feature=g-upl

http://www.musewiki.org/Sign_o%27_the_Times_(song)


Go back to tablature