Plug In Baby (tablature)

MuseWiki, wiki for the band Muse
Jump to: navigation, search

Guitar tab

Standard Tuning
Chords:

F#5
F#(9b5)
G
Bm
Bm/F#
F#7aug
F#7
F#
D

INTRO
  Gtr.1(elec.)             [F#]
e|----------------------||--------------------------|---------------------------|
B|----------------------||o-------------------------|-----------7h8p7-----------|
G|--w/ad lib. feedback--||--------6--------6--7-----|--6--7--9---------9--7--6--|
D|----------------------||--8--9-----8--9--------9--|---------------------------|
A|----------------------||o-------------------------|---------------------------|
E|----------------------||--------------------------|---------------------------|

   [G]                                                      [D]
e|--------------------------|-----------------------------|--------------------------|
B|--------------------------|--------7--7h8p7------7------|--7-----------------7--9--|
G|-----6--7-----6--7--9--6--|--7--9------------10-----10--|-----7-----------7--------|
D|--9--------9--------------|-----------------------------|--------7-----7-----------|
A|--------------------------|-----------------------------|-----------9--------------|
E|--------------------------|-----------------------------|--------------------------|

    B                           [F#] 
e|---------------------------||--------------------------|---------------------------||
B|--9br--7------7-----------o||--------------------------|-----------7h8p7-----------||
G|----------10-----7--6--7---||--------6--------6--7-----|--6--7--9---------9--7--6--||
D|---------------------------||--8--9-----8--9--------9--|---------------------------||
A|--------------------------o||--------------------------|---------------------------||
E|---------------------------||--------------------------|---------------------------||

VERSE
  Bass gtr.arr.for gtr.
     [G]                        Gtr.1 tacet                [D]
e||----------------------------|--------------------------|-------------------------|
B||o---------------------------|--------------------------|-------------------------|
G||----------------------------|--------------------------|-------7--------------7--|
D||--(9)-----5--------------5--|--------5--------------5--|-------------------7-----|
A||o---------------------5-----|--------------------5-----|--5--------x-5--5--------|
E||------3-------x-3--3--------|--3---------x-3--3--------|-------------------------|
                                1.I've ex  -  posed   your____  lies________________
                                           2.Don't    con - fuse

                            [F#]
e|-------------------------|-------------------------|--------------------------|
B|-------------------------|-------------------------|--------------------------|
G|-------7--------------7--|-------------------------|--------------------------|
D|-------------------7-----|-------4--------------4--|--------4--------------4--|
A|--5--------x-5--5--------|-------------------4-----|--------------------4-----|
E|-------------------------|--2--------x-2--2--------|--2---------x-2--2--------|
    _     ba      -     by.____                  The   un-der - neath's_   no 
    _     ba - by you're gon-na           lose                  your____  own

     [G]                                               [D]
                                                      Gtr.1
e|-------------------------|-------------------------|------------------------|
B|-------------------------|-------------------------|--10--------------------|
G|-------------------------|-------------------------|------11----------------|
D|-------5--------------5--|-------5--------------5--|----------12------------|
A|-------------------5-----|-------------------5-----|------------------------|
E|--3--------x-3--3--------|--3--------x-3--3--------|------------------------|
   big    sur-prise,                now it's time_________              for
  game.

                    [F#]
e|----------------|------------------------|----------------|
B|----------------|--11--------------------|----------------|
G|----------------|------11----------------|----------------|
D|----------------|----------11------------|----------------|
A|----------------|------------------------|----------------|
E|----------------|------------------------|----------------|
   chan  -  ging____________________  and     clean-sing ev-
  Change    me______________________         re-place the en-

   [G]                                       [D]
e|------------------------|----------------|------------------------|
B|--12--------------------|----------------|--10--------------------|
G|------12----------------|----------------|------11----------------|
D|----------12------------|----------------|----------12------------|
A|------------------------|----------------|------------------------|
E|------------------------|----------------|------------------------|
        -    'ry - thing   to for-get your______  love.______________
        -     vy - ing     to for-get your______  love.______________

                    F#5                               F#(b5)
e|----------------|----------------------------------|----------------------------------||
B|----------------|----------------------------------|----------------------------------||
G|----------------|--11--11--11--11--11--11--11--11--|----------------------------------||
D|----------------|--11--11--11--11--11--11--11--11--|--10--10--10--10--10--10--10--10--||
A|----------------|---9---9---9---9---9---9---9---9--|---9---9---9---9---9---9---9---9--||
E|----------------|----------------------------------|----------------------------------||
  _                w/distortion                       Gtr.1 + Gtr.2(elec)
  _}                 

CHORUS
    G                                                     Bm
e|--3--3--3--3--3--3--3--3--|--3--3--3--3--3--3--3--3--|--2--2--2--2--2--2--2--2--|
B|--3--3--3--3--3--3--3--3--|--3--3--3--3--3--3--3--3--|--3--3--3--3--3--3--3--3--|
G|--4--4--4--4--4--4--4--4--|--4--4--4--4--4--4--4--4--|--4--4--4--4--4--4--4--4--|
D|--5--5--5--5--5--5--5--5--|--5--5--5--5--5--5--5--5--|--4--4--4--4--4--4--4--4--|
A|--5--5--5--5--5--5--5--5--|--5--5--5--5--5--5--5--5--|--2--2--2--2--2--2--2--2--|
E|--3--3--3--3--3--3--3--3--|--3--3--3--3--3--3--3--3--|--------------------------|
                  And my     plug-in    ba - by____________

    Bm/F#                      G
e|--2--2--2--2--2--2--2--2--|--3--3--3--3--3--3--3--3--|--3--3--3--3--3--3--3--3--|
B|--3--3--3--3--3--3--3--3--|--3--3--3--3--3--3--3--3--|--3--3--3--3--3--3--3--3--|
G|--4--4--4--4--4--4--4--4--|--4--4--4--4--4--4--4--4--|--4--4--4--4--4--4--4--4--|
D|--4--4--4--4--4--4--4--4--|--5--5--5--5--5--5--5--5--|--5--5--5--5--5--5--5--5--|
A|--2--2--2--2--2--2--2--2--|--5--5--5--5--5--5--5--5--|--5--5--5--5--5--5--5--5--|
E|--2--2--2--2--2--2--2--2--|--3--3--3--3--3--3--3--3--|--3--3--3--3--3--3--3--3--|
   cru-ci - fies__ my    en  -  em-ies.     When I'm    tired   of giv  -  ing.____

    Bm                       F#7aug       F#7             G
e|--2--2--2--2--2--2--2--2--|--0--0--0--0--0--0--0--0--|--3--3--3--3--3--3--3--3--|
B|--3--3--3--3--3--3--3--3--|--3--3--3--3--2--2--2--2--|--3--3--3--3--3--3--3--3--|
G|--4--4--4--4--4--4--4--4--|--3--3--3--3--3--3--3--3--|--4--4--4--4--4--4--4--4--|
D|--4--4--4--4--4--4--4--4--|--4--4--4--4--4--4--4--4--|--5--5--5--5--5--5--5--5--|
A|--2--2--2--2--2--2--2--2--|--------------------------|--5--5--5--5--5--5--5--5--|
E|--------------------------|--2--2--2--2--2--2--2--2--|--3--3--3--3--3--3--3--3--|
  ______________________________             Woh.__________             And my

                               Bm                       Bm/F#
e|--3--3--3--3--3--3--3--3--|--2--2--2--2--2--2--2--2--|--2--2--2--2--2--2--2--2--|
B|--3--3--3--3--3--3--3--3--|--3--3--3--3--3--3--3--3--|--3--3--3--3--3--3--3--3--|
G|--4--4--4--4--4--4--4--4--|--4--4--4--4--4--4--4--4--|--4--4--4--4--4--4--4--4--|
D|--5--5--5--5--5--5--5--5--|--4--4--4--4--4--4--4--4--|--4--4--4--4--4--4--4--4--|
A|--5--5--5--5--5--5--5--5--|--2--2--2--2--2--2--2--2--|--2--2--2--2--2--2--2--2--|
E|--3--3--3--3--3--3--3--3--|--------------------------|--2--2--2--2--2--2--2--2--|
  plug-in    ba - by____________             in  un   -  bro-ken  vir - gin re-al-

    G                                                     D
e|--3--3--3--3--3--3--3--3--|--3--3--3--3--3--3--3--3--|--------------------------|
B|--3--3--3--3--3--3--3--3--|--3--3--3--3--3--3--3--3--|--7--7--7--7--7--7--7--7--|
G|--4--4--4--4--4--4--4--4--|--4--4--4--4--4--4--4--4--|--7--7--7--7--7--7--7--7--|
D|--5--5--5--5--5--5--5--5--|--5--5--5--5--5--5--5--5--|--7--7--7--7--7--7--7--7--|
A|--5--5--5--5--5--5--5--5--|--5--5--5--5--5--5--5--5--|--5--5--5--5--5--5--5--5--|
E|--3--3--3--3--3--3--3--3--|--3--3--3--3--3--3--3--3--|--------------------------|
    - it-ies,            is  tired  of liv - ing.__________

                            [1.-----------------------------------------------------
                               F#
e|--------------------------|--------------------------|---------------------------|
B|--7--7--7--7--7--7--7--7--|--------------------------|-----------7h8p7-----------|
G|--7--7--7--7--7--7--7--7--|--------6--------6--7-----|--6--7--9---------9--7--6--|
D|--7--7--7--7--7--7--7--7--|--8--9-----8--9--------9--|---------------------------|
A|--5--5--5--5--5--5--5--5--|--------------------------|---------------------------|
E|--------------------------|--------------------------|---------------------------|
        Ooh.________________________________________________

 -------------------------------------------------------------------------------------
    G                                                        D
e|--------------------------|-----------------------------|--------------------------|
B|--------------------------|--------7--7h8p7------7------|--7-----------------7--9--|
G|-----6--7-----6--7--9--6--|--7--9------------10-----10--|-----7-----------7--------|
D|--9--------9--------------|-----------------------------|--------7-----7-----------|
A|--------------------------|-----------------------------|-----------9--------------|
E|--------------------------|-----------------------------|--------------------------|

 ------------------------------------------------------------------------------------]
    B                          F#
e|--------------------------|--------------------------|----------------------------||
B|--9br--7------7-----------|--------------------------|-----------7h8p7-----------o||
G|----------10-----7--6--7--|--------6--------6--7-----|--6--7--9---------9--7--6---||
D|--------------------------|--8--9-----8--9--------9--|----------------------------||
A|--------------------------|--------------------------|---------------------------o||
E|--------------------------|--------------------------|----------------------------||

 [2.-------------------------
    F#                                                     G
e|--------------------------|---------------------------|--------------------------|
B|--------------------------|-----------7h8p7-----------|--------------------------|
G|--------6--------6--7-----|--6--7--9---------9--7--6--|-----6--7-----6--7--9--6--|
D|--8--9-----8--9--------9--|---------------------------|--9--------9--------------|
A|--------------------------|---------------------------|--------------------------|
E|--------------------------|---------------------------|--------------------------|
                               And I've seen__ your_      lov    -     ing._________

                                  D
e|-----------------------------|--------------------------|--------------------------|
B|--------7--7h8p7------7------|--7-----------------7--9--|--9br--7------7-----------|
G|--7--9------------10-----10--|-----7-----------7--------|----------10-----7--6--7--|
D|-----------------------------|--------7-----7-----------|--------------------------|
A|-----------------------------|-----------9--------------|--------------------------|
E|-----------------------------|--------------------------|--------------------------|
  ___          mine        is______  gone.____________________________________________

    F#                                                     G
e|--------------------------|---------------------------|--------------------------|
B|--------------------------|-----------7h8p7-----------|--------------------------|
G|--------6--------6--7-----|--6--7--9---------9--7--6--|-----6--7-----6--7--9--6--|
D|--8--9-----8--9--------9--|---------------------------|--9--------9--------------|
A|--------------------------|---------------------------|--------------------------|
E|--------------------------|---------------------------|--------------------------|
  ___             and I've       been_________ in___     trou    -    ble.

                                  D                          B  
e|-----------------------------|--------------------------|--------------------------|
B|--------7--7h8p7------7------|--7-----------------7--9--|--9br--7------7-----------|
G|--7--9------------10-----10--|-----7-----------7--------|----------10-----7--6--7--|
D|-----------------------------|--------7-----7-----------|--------------------------|
A|-----------------------------|-----------9--------------|--------------------------|
E|-----------------------------|--------------------------|--------------------------|
             Woo,_________        Ahh,________________________________________________

    F#                                                     G
e|--------------------------|---------------------------|--------------------------|
B|--------------------------|-----------7h8p7-----------|--------------------------|
G|--------6--------6--7-----|--6--7--9---------9--7--6--|-----6--7-----6--7--9--6--|
D|--8--9-----8--9--------9--|---------------------------|--9--------9--------------|
A|--------------------------|---------------------------|--------------------------|
E|--------------------------|---------------------------|--------------------------|*
  ___
  
                                  D                          B
e|-----------------------------|--------------------------|--------------------------|
B|--------7--7h8p7------7------|--7-----------------7--9--|--9br--7------7-----------|
G|--7--9------------10-----10--|-----7-----------7--------|----------10-----7--6--7--|
D|-----------------------------|--------7-----7-----------|--------------------------|
A|-----------------------------|-----------9--------------|--------------------------|
E|-----------------------------|--------------------------|--------------------------|

    F#                                                     G
e|--------------------------|---------------------------|------------------||
B|--------------------------|-----------7h8p7-----------|------------------||
G|--------6--------6--7-----|--6--7--9---------9--7--6--|------------------||
D|--8--9-----8--9--------9--|---------------------------|--9---------------||
A|--------------------------|---------------------------|------------------||
E|--------------------------|---------------------------|------------------||

Live, this riff is played instead of the main riff over the falsetto "And I've seen your loving":

|-------------------------|-------------------------|-------------------------|
|-11-------11-------11----|----11-------11-------11-|-12-------12-------12----|
|----11-------11-------11-|-------11-------11-------|----12-------12-------12-|
|-------11-------11-------|-11-------11-------11----|-------12-------12-------|
|-------------------------|-------------------------|-------------------------|
|-------------------------|-------------------------|-------------------------|

|-------------------------|-------------------------|-------------------------|
|----12-------12----12-11-|-10-------10-------10----|----10-------10-------10-|
|-------12-------12-------|----11-------11-------11-|-------11-------11-------|
|-12-------12-------------|-------12-------12-------|-12-------12-------12----|
|-------------------------|-------------------------|-------------------------|
|-------------------------|-------------------------|-------------------------|

|-------------------------|-------------------------|-------------------------|
|-11-------11-------11----|----11-------11-------11-|-12-------12-------12----|
|----11-------11-------11-|-------11-------11-------|----12-------12-------12-|
|-------11-------11-------|-11-------11-------11----|-------12-------12-------|
|-------------------------|-------------------------|-------------------------|
|-------------------------|-------------------------|-------------------------|

|-------------------------|
|----12-------12-------12-|
|-------12-------12-------| Then play an open D chord (xx0232) for two bars before
|-12-------12-------12----| playing the main riff as in the studio version.
|-------------------------|
|-------------------------|

In recent live,he plays the last main riff with a variation  :
at *(above)
e|-----------------------------|
B|--------7--7h8-10-8-7h8p7-6--|
G|--7--9-----------------------|
D|-----------------------------|
A|-----------------------------|
E|-----------------------------|

At some UK shows on the Black Holes and Revelations tour this riff was played at double speed.

Live, Matt also plays this over the first half of the verse:

|-----------|----------|----------|------|
|-----------|----------|----------|------|
|-----------|----------|----------|------|  Play twice
|--9--------|-7--------|-8--------|-9----|
|-----------|----------|----------|------|
|-----------|----------|----------|------|

A more modern live version of the second verse includes a one hand tapping solo:

|-----------|----------|----------|----------|
|-----------|----------|----------|----------|
|-----------|----------|----------|----------|  then play the clean riff immediately after this
|--9tr0-----|-7tr0-----|-8tr4-----|-9tr0-----|
|-----------|----------|----------|----------|
|-----------|----------|----------|----------|  tr = trill (one hand tapping)


Live Outro:

    x32        x16        x16      x16         x4         x4        x16
|----------|----------|---------|---------|-----------|----------|----------|
|----------|----------|---------|---------|-----------|----------|----------|
|-12p0h4h7-|-10p0h4h7-|-9p0h3h6-|-9p0h2h5-|-12p0h8h11-|-12p0h5h8-|-12p0h4h7-|
|----------|----------|---------|---------|-----------|----------|----------|
|----------|----------|---------|---------|-----------|----------|----------|
|----------|----------|---------|---------|-----------|----------|----------|

|-------------------------------------------------------------------------------------------------|
|-------------------------------------------------------------------------------------------------|
|-------------------------------------------------------------------------------------------------|
|-------------------------------------------------------------------------------------------------|
|------------------------------------------------------2/3-0-4-0-5-0-6-0-7-0-8-0-9-0-10-0-11-0-12-|
|-3~~~~~-3-2-3-2-3-2-3-2-3-2-3-2-3-2-3-2-3-2-3--4-5~~~--------------------------------------------|

|-------------------------------14----14-17b19r17-15h17p15-14h15p14-12-14-12----------------------------|
|-------------15-14-15-17-15-17----17----------------------------------------------15-------------------|
|-------14-17----------------------------------------------------------------12h14----14-12-11h12p11----|
|----------------------------------------------------------------------------------------------------12-|
|-12/16-------------------------------------------------------------------------------------------------|
|-------------------------------------------------------------------------------------------------------|

Bass tab

See this thread for the bass effect used in this song.

Verse 1 (after guitar solo)
G|-------------------------------------|
D|----12----------12----12----------12-|
A|-------------12----------------12----|
E|-10----10-10-------10----10-10-------|

Verse 2
G|---11--------11---11-------11-|
D|----------11-------------11---|
A|-9----9-9-------9----9-9------|
E|------------------------------|

Verse 3
G|----12----------12----12----------12-|
D|-------------12----------------12----|
A|-10----10-10-------10----10-10-------|
E|-------------------------------------|

Bridge
G|-------------------------------|
D|-------------------------------|
A|-9-9-9-9-9-9-9-9-9-9-9-9-9-9-9-|
E|-------------------------------|

Chorus 1
G|-----------------------------------------------------------------|
D|-----------------------------------------------------------------|
A|------------------------4-5-4-0-2-2-2-2-2-2-2-0-------------0----|
E|3-3-3-3-3-3-3-3-3-3-3-3-------------------------2-2-2-2-2-2---2--|

Chorus 2
G|-----------------------------------------------------------------|
D|--------------------------------------------------4-4---4-4-4----|
A|------------------------4-5-4-0-2-2-2-2-2-2-2-0------------------|
E|3-3-3-3-3-3-3-3-3-3-3-3-------------------------2-----2-------2--|

Chorus 3 (same as chorus 1)
G|-----------------------------------------------------------------|
D|-----------------------------------------------------------------|
A|------------------------4-5-4-0-2-2-2-2-2-2-2-0-------------0----|
E|3-3-3-3-3-3-3-3-3-3-3-3-------------------------2-2-2-2-2-2---2--|

Chorus 4
G|------------------------------------7-------7-------7------------|
D|----------------------------------7---7---7---7---7---7---7------|
A|------------------------4-5-4-0-5-------5-------5-------5---5-7--|
E|3-3-3-3-3-3-3-3-3-3-3-3------------------------------------------|

Thanks to this source for the bass tab.


Go back to tablaturePlug In Baby-1.jpgPlug In Baby-2.jpgPlug In Baby-3.jpgPlug In Baby-4.jpgPlug In Baby-5.jpg