Muscle Museum (tablature)

MuseWiki, wiki for the band Muse
Jump to: navigation, search

Guitar

Tuning: Standard
Intro
--------------------------------------------------|
--10-10-10-10-10-10-10-10-14-14-14-12-12-12-10-10-|
--11-11-11-11-11-11-11-11-14-14-14-13-13-13-11-11-|
--------------------------------------------------|
--------------------------------------------------|
--------------------------------------------------|

----------------------------------------------------|
--10-10-10/7/-/9--9--9--9--12-12-12-10-10-10-9--9--|
--11-11-11/8/-/10-10-10-10-13-13-13-11-11-11-10-10-|
----------------------------------------------------|
----------------------------------------------------|
----------------------------------------------------|

----------------------------------------------------|--------------------|
--9--9--9--7/9/-10-10-10-10-14-14-14-14-14-14-14-14-|--15----------------|
--10-10-10-8/10/11-11-11-11-14-14-14-15-15-15-15-15-|--16----------------|
----------------------------------------------------|--------------------|
----------------------------------------------------|--------------------|
----------------------------------------------------|--------------------|

verse
|----------------------------------|
|----------------------------------|
|------2-2-----2-2-----2-2-----2-2-|
|----------------------------------|
|--4-4-----4-4-----4-4-----4-4-----|
|----------------------------------|

----------------------------------|----------------------------------|
----------------------------------|----------------------------------|
--1-1-----1-1-----1-1-----1-1-----|------2-2-----2-2-----2-2-----2-2-|
------3-3-----3-3-----3-3-----3-0-|----------------------------------|
----------------------------------|--4-4-----4-4-----4-4-----4-4-----|
----------------------------------|----------------------------------|

----------------------------------||
--3-3-0-0-----0-0-3-3-0-0-----0-0-||
----------------------------------||
----------4-4-------------4-4-----||
----------------------------------||
----------------------------------||

Pre-chorus
|--2-2-2--x----------x---------|
|--2-2-2----7----7-----7----7--|
|--2-2-2-------6---6------6----|
|--4-4-4-----------------------|
|--4-4-4-----------------------|
|--2-2-2-----------------------|

---------x----------x----------|----------------------------------|
-----------6----6-----6----6---|----------------------------------|
--4-4-4-------6---6------6-----|--7-7-7-7-7-7-7-7-7-7-7-7-7-7-7-7-|
--3-3-3----------------------0-|--0-0-0-0-0-0-0-0-0-0-0-0-0-0-0-0-|
--4-4-4------------------------|----------------------------------|
--4-4-4------------------------|----------------------------------|

------------------------------------------|--2-2-2--2--2--2-2-2--2--2--|
--9-9-9-9-9-9-9-9-10-10-10-10-10-10-10-10-|--2-2-2--2--2--2-2-2--2--2--|
--7-7-7-7-7-7-7-7-7--7--7--7--7--7--7--7--|--2-2-2--2--2--2-2-2--2--2--|
--0-0-0-0-0-0-0-0-0--0--0--0--0--0--0--0--|--4-4-4--4--4--4-4-4--4--4--|
------------------------------------------|--4-4-4--4--4--4-4-4--4--4--|
------------------------------------------|--2-2-2--2--2--2-2-2--2--2--|

----------------------------|
----------------------------|
--4-4-4--4--4--4-4-4--4--4--|
--3-3-3--3--3--3-3-3--3--3--|
--4-4-4--4--4--4-4-4--4--4--|
--4-4-4--4--4--4-4-4--4--4--|

Chorus
|--2-2-2--2--2--2-2-2--2--2--|
|--2-2-2--2--2--2-2-2--2--2--|
|--2-2-2--2--2--2-2-2--2--2--|
|--4-4-4--4--4--4-4-4--4--4--|
|--4-4-4--4--4--4-4-4--4--4--|
--2-2-2--2--2--2-2-2--2--2--|

----------------------------|--2-2-2--2--2--2-2-2--2--2--|
----------------------------|--2-2-2--2--2--2-2-2--2--2--|
--4-4-4--4--4--4-4-4--4--4--|--2-2-2--2--2--2-2-2--2--2--|
--3-3-3--3--3--3-3-3--3--3--|--4-4-4--4--4--4-4-4--4--4--|
--4-4-4--4--4--4-4-4--4--4--|--4-4-4--4--4--4-4-4--4--4--|
--4-4-4--4--4--4-4-4--4--4--|--2-2-2--2--2--2-2-2--2--2--|

--2-2-2--2--2--2-2-2--2--2--|--2-2-2--2--2--2-2-2--2--2--|
--3-3-3--3--3--3-3-3--3--3--|--2-2-2--2--2--2-2-2--2--2--|
--4-4-4--4--4--4-4-4--4--4--|--2-2-2--2--2--2-2-2--2--2--|
--4-4-4--4--4--4-4-4--4--4--|--4-4-4--4--4--4-4-4--4--4--|
--2-2-2--2--2--2-2-2--2--2--|--4-4-4--4--4--4-4-4--4--4--|
----------------------------|--2-2-2--2--2--2-2-2--2--2--|

----------------------------|--2-2-2--2--2--2-2-2--2--2--|
----------------------------|--2-2-2--2--2--2-2-2--2--2--|
--4-4-4--4--4--4-4-4--4--4--|--2-2-2--2--2--2-2-2--2--2--|
--3-3-3--3--3--3-3-3--3--3--|--4-4-4--4--4--4-4-4--4--4--|
--4-4-4--4--4--4-4-4--4--4--|--4-4-4--4--4--4-4-4--4--4--|
--4-4-4--4--4--4-4-4--4--4--|--2-2-2--2--2--2-2-2--2--2--|

--2-2-2--2--2--2-2-2--2--2--|----------------------------|
--3-3-3--3--3--3-3-3--3--3--|--0-0-0--0--0--0-0-0--0--0--|
--4-4-4--4--4--4-4-4--4--4--|--1-1-1--1--1--1-1-1--1--1--|
--4-4-4--4--4--4-4-4--4--4--|--2-2-2--2--2--2-2-2--2--2--|
--2-2-2--2--2--2-2-2--2--2--|--2-2-2--2--2--2-2-2--2--2--|
----------------------------|--0-0-0--0--0--0-0-0--0--0--|

--1--1--1--1--1--1--1--1--|--2----------------|
--2--2--2--2--2--2--2--2--|--2----------------|
--1--1--1--1--1--1--1--1--|--2----------------|
--------------------------|--4----------------|
--------------------------|--4----------------|
--1--1--1--1--1--1--1--1--|--2----------------|

Outro 1
--------0-----4-----0-----|--------------1-----------|
-----0-----0-----0-----0--|--------2-----------2-----|
--------------------------|-----1-----1-----1-----1--|
--2-----------------------|--------------------------|
--------------------------|--4-----------------------|
--------------------------|--------------------------|

--------------2-----------|--------------2-----------|
--------2-----------2-----|--------2-----------2-----|
-----2-----2-----2-----2--|-----2-----2-----2-----2--|
--4-----------------------|--2-----------------------|
--------------------------|--------------------------|
--------------------------|--------------------------|

--------------2-----------|--------------2-----------|
--------2-----------2-----|--------2-----------2-----|
-----2-----2-----2-----2--|-----2-----2-----2-----2--|
--0-----------------------|--0-----------------------|
--------------------------|--------------------------|
--------------------------|--------------------------|

--------0-----4-----0-----|--------------1-----------|
-----0-----0-----0-----0--|--------2-----------2-----|
--------------------------|-----1-----1-----1-----1--|
--2-----------------------|--------------------------|
--------------------------|--4-----------------------|
--------------------------|--------------------------|

--------------2-----------|--------------2-----------|
--------2-----------2-----|--------2-----------2-----|
-----2-----2-----2-----2--|-----2-----2-----2-----2--|
--4-----------------------|--2-----------------------|
--------------------------|--------------------------|
--------------------------|--------------------------|
 
--------------2-----------|--------------2-----------|
--------2-----------2-----|--------2-----------2-----|
-----2-----2-----2-----2--|-----2-----2-----2-----2--|
--0-----------------------|--0-----------------------|
--------------------------|--------------------------|
--------------------------|--------------------------|

Outro 2
|--2----2---------------|
|--2----2---------------|
|--2----2---------------|
|--4----4----4----4--4--|
|--4----4----2----0--x--|
|--2----2------------4--|

--2----2--2---------------|----------------------------|
--2----2--2---------------|----------------------------|
--2----2--2---------------|----------------------------|
--4----4--4--4-4-4--4--4--|--4-4-4--4--4--4-4-4--4--4--|
--4----4--4--2-2-2--0-----|------------0--2-2-2--0-----|
--2----2--2------------4--|--2-2-2--4---------------4--|

----------------------------|--2----------------|
----------------------------|--2----------------|
----------------------------|--2----------------|
--4-4-4--4--4--4-4-4--4--4--|--4----------------|
------------0--2-2-2--0-----|--4----------------|
--2-2-2--4---------------4--|--2----------------|

The really outro
--------------------------------------------------|
--10-10-10-10-10-10-10-10-14-14-14-12-12-12-10-10-|
--11-11-11-11-11-11-11-11-14-14-14-13-13-13-11-11-|
--------------------------------------------------|
--------------------------------------------------|
--------------------------------------------------|

--------------------------------------------------|
--10-10-10-10-9--9--9--9--12-12-12-10-10-10-9--9--|
--11-11-11-11-10-10-10-10-13-13-13-11-11-11-10-10-|
--------------------------------------------------|
--------------------------------------------------|
--------------------------------------------------|

--------------------------------------------------|
--9--9--9--9--10-10-10-10-14-14-14-14-14-14-14-14-|
--10-10-10-10-11-11-11-11-14-14-14-15-15-15-15-15-|
--------------------------------------------------|
--------------------------------------------------|
--------------------------------------------------|

----------------------------------------------|--14----------------||
--15-15-15-15-15-15-15-15-15-15-15-15-15--15--|--14----------------||
--16-16-16-16-16-16-16-16-16-16-16-16-16--16--|--14----------------||
----------------------------------------------|--16----------------||
----------------------------------------------|--------------------||
----------------------------------------------|--------------------||

Bass

Riff 1
G|----------------|
D|4---4---4---4---|
A|--4---4---4---4-|
E|----------------|

Riff 2
G|----------------|----------------|--------------6-|7-4-------------|
D|4---4---4---4---|----------------|4---4---4---4---|----4-------2-3-|
A|--4---4---4---4-|4---4---4---4---|--4---4---4-----|------5---5-----|
E|----------------|--4---4---4---4-|----------------|--------7-------|

Riff 3
G|----------------|----------------|
D|----------------|----------------|
A|----------------|----------------|
E|2-2-2-----------|4-4-4-----------|

G|---------|
D|---------|
A|----0/9�|
E|---------|
  
Riff 4
G|------------------|-----------------------|
D|------4--------4--|-----------------------|
A|------------------|4-4-4--4-4--4-4-4--4-4-|
E|2-2-2----2-2-2----|-----------------------|

G|------------------|---------------------------|
D|------4--------4--|---------------------------|
A|------------------|2-2-2--2-2--2-2-2--2-------|
E|2-2-2----2-2-2----|---------------------5-4-5-|

G|------------------|-----------------------|
D|------4--------4--|-----------------------|
A|------------------|4-4-4--4-4--4-4-4--4-4-|
E|2-2-2----2-2-2----|-----------------------|

G|------------------|-----------------------|
D|------4--------4--|-------------------0-2-|
A|------------------|2-2-2--2-2--2-2-2------|
E|2-2-2----2-2-2----|-----------------------|

Riff 5
G|----------------|----------------|----------------|----------------|
D|----2-------2---|----3-------3---|4---4---4---4---|4---4---4---4---|
A|----------------|----------------|--4---4---4---4-|--4---4---4---4-|
E|0-0---0-0-0---0-|1-1---1-1-1---1-|----------------|----------------|

Riff 6
G|----------------|----------------|----------------|-----------------|
D|----2-------2---|----3-------3---|4-4-4-4-2-2-2-2-|-----------------|
A|----------------|----------------|----------------|5-5-5-5-5-5-5/12-|
E|0-0---0-0-0---0-|1-1---1-1-1---1-|----------------|-----------------|

G|----------------|----------------|----------------|-----------------|
D|----2-------2---|----3-------3---|4-4-4-4-2-2-2-2-|-----------------|
A|----------------|----------------|----------------|5-5-5-5-5-5------|
E|0-0---0-0-0---0-|1-1---1-1-1---1-|----------------|------------10�-|

G|----------------|----------------|-----------------|----------------|
D|----------------|----------------|-----------------|----------------|
A|0-0-0-0-0-0-0-0-|----------------|---------2-2-0-4-|--------2-2-0-4-|
E|----------------|4-4-4-4-4-4-4-4-|2-2-2-2----------|2-2-2-2---------|

G|-----------------|----------------|----------------|
D|-----------------|----------------|----------------|
A|-------0-2-2-0---|------0-2-2-0-4-|----------------|
E|2-2-4----------4-|2-2-4-----------|2---------------|

And the order is:
Riff 1x1
Riff 2x6
Riff 3x1
Riff 4x1
Riff 5x1
Riff 2x3
Riff 3x1
Riff 4x1
Riff 6x1


Go back to tablature