MK ULTRA (tablature)

MuseWiki, wiki for the band Muse
Jump to: navigation, search

Main Intro riff Corrected by Spiderliam, Corrected by DSpek, Chorus corrected by Jack96, All Corrected again by Adam

Intro:

E|-13----12-13----12-13----|----13-------13-------13-|-------13-------13-------|-15-------15-------15----|
B|----10-------10-------10-|-11----10-11----10-11----|-10-13----10-13----10-13-|----12-13----12-13----12-|
G|-------------------------|-------------------------|-------------------------|-------------------------|
D|-------------------------|-------------------------|-------------------------|-------------------------|
A|-------------------------|-------------------------|-------------------------|-------------------------|
D|-------------------------|-------------------------|-------------------------|-------------------------|

E|-------17-------17-------|-18-------18-------18----|----13-17----13-17----13-|-15-13-12----13-12-------|
B|-13/15----13-15----13-15-|----15-18----15-18----15-|-13-------13-------13----|----------14-------14-11-|
G|-------------------------|-------------------------|-------------------------|-------------------------|
D|-------------------------|-------------------------|-------------------------|-------------------------|
A|-------------------------|-------------------------|-------------------------|-------------------------|
D|-------------------------|-------------------------|-------------------------|-------------------------|

Verse:

E||-------------------------||----------------------------|----------------------------|-----------------|
B||-10-10-10-10-10-10-10-10-||-10b11-11-11-11-11-11-11-11-|-11b10-10-10-10-10-10-10-10-|-8-8-8-8-8-8-8-8-|
G||------------------------(x5)---------------------------|----------------------------|-----------------| (x2)
D||-------------------------||----------------------------|----------------------------|-----------------|
A||-------------------------||----------------------------|----------------------------|-----------------|
D||-------------------------||----------------------------|----------------------------|-----------------|

Pre-Chorus:

E|-13----12-13----12-13----|----13-------13-------13-|-------13-------13-------|-15-------15-------15----|
B|----10-------10-------10-|-11----10-11----10-11----|-10-13----10-13----10-13-|----12-13----12-13----12-|
G|-------------------------|-------------------------|-------------------------|-------------------------|
D|-------------------------|-------------------------|-------------------------|-------------------------|
A|-------------------------|-------------------------|-------------------------|-------------------------|
D|-------------------------|-------------------------|-------------------------|-------------------------|

E|-------17-------17-------|-18-------18-------18----|----13-17----13-17----13-|-15-13-12----13-12-------|
B|-13/15----13-15----13-15-|----15-18----15-18----15-|-13-------13-------13----|----------14-------14-11-|
G|-------------------------|-------------------------|-------------------------|-------------------------|
D|-------------------------|-------------------------|-------------------------|-------------------------|
A|-------------------------|-------------------------|-------------------------|-------------------------|
D|-------------------------|-------------------------|-------------------------|-------------------------|

Chorus:

e|----------------------------------------------------------------|
B|----------------------------------------------------------------|
G|-7-------9-------10-------12------10------9------7------6-------|
D|-x-(x16)-x-(x32)-x--(x16)--x-(x4)-x--(x4)-x-(x4)-x-(x4)-x-(x16)-|
A|-5-------7-------8--------10------8-------7------5------4-------|
E|----------------------------------------------------------------|



E|------------------------------------------------------------------|
B|------------------------------------------------------------------|
G|------------------------------------------------------------------|
D|------------------------------------------------------------------|
A|------------------------------------------------------------------|
D|-12-12--12--12\----12-12--12--11\----10-10--10--10\----9-9--9--9\-|

E|--------------------------------------------------------------------------|
B|--------------------------------------------------------------------------|
G|--------------------------------------------------------------------------|
D|--------------------------------------------------------------------------|
A|--------------------------------------------------------------------------|
D|-8-8--8--8\----7-7--7--7\----7-7--7--7\----7-7--7----7\-------------------| x2

E|-----------------|
B|-----------------|
G|-----------------|
D|-----------------|
A|---------------5-|
D|-0-0-3-0-5-7-0---| x4 Then this

Verse 2:

E||-------------------------||----------------------------|----------------------------|-----------------|
B||-10-10-10-10-10-10-10-10-||-10b11-11-11-11-11-11-11-11-|-11b10-10-10-10-10-10-10-10-|-8-8-8-8-8-8-8-8-|
G||------------------------(x5)---------------------------|----------------------------|-----------------|
D||-------------------------||----------------------------|----------------------------|-----------------|
A||-------------------------||----------------------------|----------------------------|-----------------|
D||-------------------------||----------------------------|----------------------------|-----------------|

E||-------------------------|----------------------------|----------------------------|-------------------------|
B||-10810810-10-10-10-10-10-|-10-10-10-10-10-10-10-10-10-|-10-10-10-10-10-10-10-10-10-|-10810810-10-10-10-10-10-|
G||-------------------------|----------------------------|----------------------------|-------------------------|
D||-------------------------|----------------------------|----------------------------|-------------------------|
A||-------------------------|----------------------------|----------------------------|-------------------------|
D||-------------------------|----------------------------|----------------------------|-------------------------|

10's and 8's (not 1's 0's and 8's)

E||-------------------------|----------------------------|----------------------------|-----------------|
B||-10-10-10-10-10-10-10-10-|-10b11-11-11-11-11-11-11-11-|-11b10-10-10-10-10-10-10-10-|-8-8-8-8-8-8-8-8-|
G||-------------------------|----------------------------|----------------------------|-----------------|
D||-------------------------|----------------------------|----------------------------|-----------------|
A||-------------------------|----------------------------|----------------------------|-----------------|
D||-------------------------|----------------------------|----------------------------|-----------------|

Pre-Chorus

E|-13----12-13----12-13----|----13-------13-------13-|-------13-------13-------|-15-------15-------15----|
B|----10-------10-------10-|-11----10-11----10-11----|-10-13----10-13----10-13-|----12-13----12-13----12-|
G|-------------------------|-------------------------|-------------------------|-------------------------|
D|-------------------------|-------------------------|-------------------------|-------------------------|
A|-------------------------|-------------------------|-------------------------|-------------------------|
D|-------------------------|-------------------------|-------------------------|-------------------------|

E|-------17-------17-------|-18-------18-------18----|----13-17----13-17----13-|-15-13-12----13-12-------|
B|-13/15----13-15----13-15-|----15-18----15-18----15-|-13-------13-------13----|----------14-------14-11-|
G|-------------------------|-------------------------|-------------------------|-------------------------|
D|-------------------------|-------------------------|-------------------------|-------------------------|
A|-------------------------|-------------------------|-------------------------|-------------------------|
D|-------------------------|-------------------------|-------------------------|-------------------------|

Chorus:

e|----------------------------------------------------------------|
B|----------------------------------------------------------------|
G|-7-------9-------10-------12------10------9------7------6-------|
D|-x-(x16)-x-(x32)-x--(x16)--x-(x4)-x--(x4)-x-(x4)-x-(x4)-x-(x16)-|
A|-5-------7-------8--------10------8-------7------5------4-------|
E|----------------------------------------------------------------|

Outro

E|------------------------------------------------------------------|
B|------------------------------------------------------------------|
G|------------------------------------------------------------------|
D|------------------------------------------------------------------|
A|---------------5---------------5---------------5--------------5---|
D|-0-0-3-0-5-7-0---0-0-3-0-5-7-0---0-0-3-0-5-7-0--0-0-3-0-5-7-0-----|

E|---------------------------------------------------------------------|
B|---------------------------------------------------------------------|
G|---------------------------------------------------------------------|
D|---------------------------------------------------------------------|
A|---------------7\--------------8\--------------10\-------------12\---|
D|-0-0-3-0-5-7-0-----0-3-0-5-7-0-----0-3-0-5-7-0-----0-3-0-5-7-0-------|


E|-------------------------------------------------------------------|
B|-------------------------------------------------------------------|
G|-------------------------------------------------------------------|
D|-------------------------------------------------------------------|
A|-------------13\-------------14\-------------15\-------------17\---|
D|-0-3-0-5-7-0-----0-3-0-5-7-0-----0-3-0-5-7-0-----0-3-0-5-7-0-------|

E|-------------------------------------------------------------------|
B|-------------------------------------------------------------------|
G|-------------------------------------------------------------------|
D|-------------------------------------------------------------------|
A|-------------17\-------------17\-------------17\-------------17\---|
D|-0-3-0-5-7-0-----0-3-0-5-7-0-----0-3-0-5-7-0-----0-3-0-5-7-0-------|




Go back to tablature