Jimmy Kane (tablature)

MuseWiki, wiki for the band Muse
Jump to: navigation, search

Guitar

Tuning: Standard

Intro:

e|-----------------------|
B|-----------------------|
G|-----7-8-9-8-7-8-7-----| X 3
D|--0--------------------|
A|-----------------------|
E|-----------------------|


Pre-verse:

e|-------------------------------------------------------------|
B|-------------------------------------------------------------|
G|-------------------------------------------------------------|
D|----9-7---------7--------9-7---------7--------9-7---------7--|
A|--------9-7-7-9--------------9-7-7-9--------------9-7-7-9----|
E|--7------------------7-7------------------7-7----------------|

e|-----------------|
G|-----------------|
B|-----------------|
D|------9-7--x-x---|
A|-----------x-x---|
E|--7-7------------|


Verse:

e|-----------------------------------|
G|-----------------------------------|
B|--7--9—-9b------------7--7--6----4-|
D|-----------------------------------|
A|-----------------------------------|
E|-----------------------------------|

e|----------------------------------------------------0---|
G|-----------------------------------------------x-x--0---|
B|--7--9—-9b------------7--7--6----4b------------x-x--0---|
D|-----------------------------------------------x-x------|
A|-----------------------------------------------x-x------|
E|--------------------------------------------------------|


e|----------------------|
G|----------------------|
B|----------------------| X 3
D|--8---9-7---------7---|
A|----8-----9-7-7-9-----|
E|----------------------|

e|----------------------|
G|----------------------|
B|----------------------|
D|--8---9-7------0------|
A|----8-----9-7--0------|
E|----------------------|


Pre-chorus:
         
e|-------5*-----------------------------|
G|-------5*-----------------------------|
B|-------5*-------------------2b--------| X 2
D|--------------------------------------|
A|------------------------0-0-----------|
E|--0-0---------------------------------|

e|-------0-----------------------------|
G|-------0-----------------------------|
B|-------0-------------------2---b-----| X 2
D|-------------------------------------|
A|-----------------------0-0-----------|
E|--0-0--------------------------------|

e|------------------------|
G|------------------------|
B|------------------------|
D|------------------------|
A|------------------------|
E|---5-5-5-5-5--3-0-3-----|


Chorus:

e|--------------------------------------|
G|--------------------------------------|
B|--------------------------------------|
D|------2-1-0---------------------------|
A|--------------------------------------|
E|--0-0--------3-0-3---5-5-5-5-5--3-0-3-|

e|--------------------------------------------|
G|--------------------------------------------|
B|--------------------------------------------|
D|------2-1-0---------------------------------|
A|--------------------------------------------|
E|--0-0--------3-0-3---5-5-5-5-5—6-7\---------|


Pre-verse 2 (Let ring):

e|--5-----------------------------------|
G|--4----4--------------4--------x-x----|
B|--4-------3-------------4------x-x----|
D|--x----------5------5------5----------|
A|--5-----------------------------------|
E|--------------------------------------|


Verse:

e|-----------------------------------|
G|-----------------------------------|
B|--7--9—-9b------------7--7--6----4-|
D|-----------------------------------|
A|-----------------------------------|
E|-----------------------------------|

e|----------------------------------------------------0---|
G|-----------------------------------------------x-x--0---|
B|--7--9—-9b------------7--7--6----4b------------x-x--0---|
D|-----------------------------------------------x-x------|
A|-----------------------------------------------x-x------|
E|--------------------------------------------------------|


Pre-chorus:

e|-------5*-----------------------------|
G|-------5*-----------------------------|
G|-------5*-------------------2b--------| X 2
D|--------------------------------------|
A|------------------------0-0-----------|
E|--0-0---------------------------------|

e|-------0-----------------------------|
G|-------0-----------------------------|
B|-------0-------------------2---b-----| X 2
D|-------------------------------------|
A|-----------------------0-0-----------|
E|--0-0--------------------------------|

e|------------------------|
G|------------------------|
B|------------------------|
D|------------------------|
A|------------------------|
E|---5-5-5-5-5--3-0-3-----|


Chorus:

e|--------------------------------------|
G|--------------------------------------|
B|--------------------------------------| X 2
D|------2-1-0---------------------------|
A|--------------------------------------|
E|--0-0--------3-0-3---5-5-5-5-5--3-0-3-|

e|--------------------------------------------|
G|--------------------------------------------|
B|--------------------------------------------|
D|------2-1-0---------------------------------|
A|--------------------------------------------|
E|--0-0--------3-0-3---5-5-5-5-5—6-7\---------|


Bridge:

e|------------------|
G|------------------|
B|------------------| X 4
D|------------------|
A|------------------|
E|--7-7-7-7-7-7-7-7-|


Outro:

e|----------------------------|
G|----------------------------|
B|----------------------------|
D|--x-x-x-x-x-x-x-x-x-x-x-----|
A|--x-x-x-x-x-x-x-x-x-x-x-----|
E|----------------------------|

e|----------------------------|
G|----------------------------|
B|----------------------------|
D|----------------------------|
A|----------------------------|
E|--5-5-5-5-5--3-0-3--0-0-----|

Bass

Verse

G|------4-2---------2----------|
D|----------4-2-2-4------------|  X 20
A|--2-2------------------------|
E|-----------------------------|


Bridge

G|-----------------------------|
D|-----------------------------|
A|-----------------------------|
E|--0-0---5-5---0-0---5-5------|


Chorus

G|----------------------------------|
D|----------------------------------|
A|-----7-6-5------------------------|
E|-0-0-------5-6-7--5-5-5-5-5-3-0-3-|


Verse

G|------4-2---------2----------| 
D|----------4-2-2-4------------|  X 20
A|--2-2------------------------|
E|-----------------------------|


Chorus

G|----------------------------------|
D|----------------------------------|
A|-----7-6-5------------------------|
E|-0-0-------5-6-7--5-5-5-5-5-3-0-3-|


Go back to tablature