Dead Star (tablature)

MuseWiki, wiki for the band Muse
Jump to: navigation, search
Muse Tab
Name Dead Star
Length 03:42
Tuning Drop-D
Tempo 160bpm
Timing 4/4

Guitar

h - hammer on 
p - pull off 
b - bend string up a half step
^ - bend string up a quarter step
r - release bend
/ - slide up
\ - slide down
v - vibrato 
t - tap (with middle finger of strumming hand)
x - palm mute
* - harmonic
~ - let ring


Intro Part 1 - With heavy distortion

E------------------------|-------------------------|------------------------|------------------------|
B--9----------9----------|--9----------------------|--9----------9----------|--9---------------------|
G--7--7--7~---7--7--7~---|--7--7--7~---------------|--7--7--7~---7--7--7~---|--7--7--7~--------------|
D------------------------|-------------5*5*5*5*----|------------------------|---------------------~--|
A------------------------|-------------------------|------------------------|-------------5*5*5*5*---|
D------------------------|-------------------------|------------------------|------------------------|




Intro Part 2

E----------------|-------------------|
B----------------|-------------------|
G----------------|-------------------|
D----------------|-------------------|  x2
A-12-0-0---12-0-0|-12-0-5-6-7-0-10-11|
D-12-0-0---12-0-0|-12-0-5-6-7-0-10-11|


E------------------------|-------------------------|------------------------|------------------------|
B--9----------9----------|--9----------------------|--9----------9----------|--9---------------------|
G--7--7--7~---7--7--7~---|--7--7--7~---------------|--7--7--7~---7--7--7~---|--7--7--7~--------------|
D------------------------|-------------5*5*5*5*----|------------------------|---------------------~--|
A------------------------|-------------------------|------------------------|-------------5*5*5*5*---|
D------------------------|-------------------------|------------------------|------------------------|



Verse (slight distortion + delay)

 |-palm mute--------------------------------------------------------
  Dm                Faug             F                Fdim
E-----------------|----------------|----------------|----------------|
B-6-------6-------|-6-------6------|-6-------6------|-6-------6------|
G---7---7---7---7-|---6---6---6---6|---5---5---5---5|---4---4---4---4|
D-----7-------7---|-----7-------7--|-----7-------7--|-----6-------6--|
A-----------------|----------------|----------------|----------------|
D-----------------|----------------|----------------|----------------|



  -palm mute-------------------------------------------------------------------------
  Edim             D                Dm               D
E----------------|----------------|----------------|----------------|----------------|
B-5-------5------|-3-------3------|-3-------3------|-3-------3---3--|---x-x-x-x-x-x--|
G---3---3---3---3|---2---2---2---2|---2---2---2---2|---2---2---2-2--|---x-x-x-x-x-x--|
D-----5-------5--|-----4-------4--|-----3-------3--|-----4-------4--|---x-x-x-x-x-x--|
A----------------|----------------|----------------|----------------|----------------|
D----------------|----------------|----------------|----------------|----------------|

-palm mute----------------------------------------------------------
  Dm               Gm               G                Gm
E----------------|----------------|----------------|----------------|
B-6-------6------|-8-------8------|-8-------8------|-8-------8------|
G---7---7---7---7|---7---7---7---8|---7---7---7---7|---7---7---7---7|
D-----7-------7--|-----8-------8--|-----9-------9--|-----8-------8--|
A----------------|----------------|----------------|----------------|
D----------------|----------------|----------------|----------------|

						                     *Harmonic between
-palm mute------------------------|                                   2nd and 3rd fret
  Gdim             F#dim            F#dim             Gm
E----------------|----------------|-----------------|-3-3-3-3-3-3-3-3-|----------------|
B-8-------8------|-7-------7------|-7-7-7-7-7-7-7-7-|-3-3-3-3-3-3-3-3-|----------------|
G---6---6---6---6|---5---5---5---5|-5-5-5-5-5-5-5-5-|-3-3-3-3-3-3-3-3-|----------------|
D-----8-------8--|-----7-------7--|-7-7-7-7-7-7-7-7-|-5-5-5-5-5-5-5-5-|----------------|
A----------------|----------------|-----------------|-----------------|----------------|
D----------------|----------------|-----------------|-----------------|---2*2*2*2*2*2*~|


Chorus:
  Bb                                  F5
E-----------------|-----------------|-----------------|-----------------|
B-----------------|-----------------|-6-6-6-6-6-6-6-6-|-6-6-6-6-6-6-6-6-|
G-7-7-7-7-7-7-7-7-|-7-7-7-7-7-7-7-7-|-5-5-5-5-5-5-5-5-|-5-5-5-5-5-5-5-5-|
D-8-8-8-8-8-8-8-8-|-8-8-8-8-8-8-8-8-|-3-3-3-3-3-3-3-3-|-3-3-3-3-3-3-3-3-|
A-8-8-8-8-8-8-8-8-|-8-8-8-8-8-8-8-8-|-3-3-3-3-3-3-3-3-|-3-3-3-3-3-3-3-3-|
D-8-8-8-8-8-8-8-8-|-8-8-8-8-8-8-8-8-|-3-3-3-3-3-3-3-3-|-3-3-3-3-3-3-3-3-|

  A                                   Bb
E-----------------|-----------------|-----------------|-----------------|
B-----------------|-----------------|-----------------|-----------------|
G-6-6-6-6-6-6-6-6-|-6-6-6-6-6-6-6-6-|-7-7-7-7-7-7-7-7-|-7-7-7-7-7-7-7-7-|
D-7-7-7-7-7-7-7-7-|-7-7-7-7-7-7-7-7-|-8-8-8-8-8-8-8-8-|-8-8-8-8-8-8-8-8-|
A-7-7-7-7-7-7-7-7-|-7-7-7-7-7-7-7-7-|-8-8-8-8-8-8-8-8-|-8-8-8-8-8-8-8-8-|
D-7-7-7-7-7-7-7-7-|-7-7-7-7-7-7-7-7-|-8-8-8-8-8-8-8-8-|-8-8-8-8-8-8-8-8-|

  F5                                  Bb
E-----------------|-----------------|-----------------|-----------------|
B-6-6-6-6-6-6-6-6-|-6-6-6-6-6-6-6-6-|-----------------|-----------------|
G-5-5-5-5-5-5-5-5-|-5-5-5-5-5-5-5-5-|-6-6-6-6-6-6-6-6-|-6-6-6-6-6-6-6-6-|
D-3-3-3-3-3-3-3-3-|-3-3-3-3-3-3-3-3-|-7-7-7-7-7-7-7-7-|-7-7-7-7-7-7-7-7-|
A-3-3-3-3-3-3-3-3-|-3-3-3-3-3-3-3-3-|-7-7-7-7-7-7-7-7-|-7-7-7-7-7-7-7-7-|
D-3-3-3-3-3-3-3-3-|-3-3-3-3-3-3-3-3-|-7-7-7-7-7-7-7-7-|-7-7-7-7-7-7-7-7-|




Bridge

E----------------|-------------------|
B----------------|-------------------|
G----------------|-------------------|
D----------------|-------------------|  x2
A-12-0-0---12-0-0|-12-0-5-6-7-0-10-11|
D-12-0-0---12-0-0|-12-0-5-6-7-0-10-11|

E------------------------|-------------------------|------------------------|------------------------|
B--9----------9----------|--9----------------------|--9----------9----------|--9---------------------|
G--7--7--7~---7--7--7~---|--7--7--7~---------------|--7--7--7~---7--7--7~---|--7--7--7~--------------|
D------------------------|-------------5*5*5*5*----|------------------------|---------------------~--|
A------------------------|-------------------------|------------------------|-------------5*5*5*5*---|
D------------------------|-------------------------|------------------------|------------------------|




Solo - *Put whammy pedal up 1 octave

D-0-12-0-12-0-12-0-12-0-12-0-12-0-12-0-12|-0-12-0-12-0-12-0-12-0-12-0-12-0-12-0-12|
            *________		*________	     *________ 		 *________


D-0-13-0-13-0-13-0-13-0-13-0-13-0-13-0-13|-0-13-0-13-0-13-0-13-0-13-0-13-0-13-0-13|
	    *________		*________	     *________		 *________


D-0-14-0-14-0-14-0-14-0-14-0-14-0-14-0-14|-0-14-0-14-0-14-0-14-0-14-0-14-0-14-0-14|
	    *________		*________	     *________		 *________


D-15^------------------------------------|----------------------------------------|

E----------------|-------------------|
B----------------|-------------------|
G----------------|-------------------|
D----------------|-------------------| x2
A----------------|-------------------|
D-12-0-0---12-0-0|-12-0-5-6-7-0-10-11|


Outro


E----------------|-------------------|
B----------------|-------------------|
G----------------|-------------------|
D----------------|-------------------|  x2
A-12-0-0---12-0-0|-12-0-5-6-7-0-10-11|
D-12-0-0---12-0-0|-12-0-5-6-7-0-10-11|

E------------------------|-------------------------|
B--9----------9----------|--9----------------------|
G--7--7--7~---7--7--7~---|--7--7--7~---------------|
D------------------------|-------------5*5*5*5*----|
A------------------------|-------------------------| X 4
D------------------------|-------------------------|

E------------------------|
B------------------------|
G------------------------|
D------------------------|
A-0~---------------------|
D-0~---------------------|



Intro Part 1
Intro Part 2
Verse
Chorus
Bridge
Verse
Chorus
Bridge
Solo
Outro


Go back to tablature