Unnatural Selection (tablature)

MuseWiki, wiki for the band Muse
Revision as of 05:47, 1 December 2011 by PhiLam64 (Talk | contribs)

(diff) ← Older revision | Latest revision (diff) | Newer revision → (diff)
Jump to: navigation, search

Intro (Church Organ)

Em                      Am    
  They'll laugh as they watch us fall
D                 G
  The lucky don't care at all
  C  A          D
  No chance for fate
       B            Em
  It's unnatural selection
  C D         G
  I want the truth


5.1 DTS intro: Octave -1 + Phaser
e----------------------|--------------------|--------------------------------------------14--15--17b-----|
B----------------------|--------------------|-----------------------14--15--14--15--17-------------------|
G--------------------9-|------------------- |--------------------14---------------------------------------|
D---12b------13---9-- -|-----9----12--13b--|--11--------11--14-------------------------------------------|
A--------10------------|-\10--------------- |---------12--------------------------------------------------|
D----------------------|------------------ -|--------------------------------------------------------------|

e---14h15b14h15b14h15---14--15--14-------------------------------|
B-------------------------------------15--------------------------|
G-----------------------------------------14--12--11-------------|
D-----------------------------------------------------------------|
A-----------------------------------------------------------------|
D-----------------------------------------------------------------|

e----------------------------|---------------------------------------------|-------------------------------|
B---------15----15---------- |------------------------12-10---------------|-------------------------------  |
G-------------12----12--11--|---9--11--12----9-12-9--------12-9--8-------|-------------------------7b----|
D--------------------------- |---------------------------------------------|-----0-------7b---7--5---------|
A--------------------------- |---------------------------------------------|------------------------------- |
D--------------------------- |---------------------------------------------|------------------------------- |

~PhiLam64 (over 2 hours to tab accurately)

Verse
E|----------------------------------------------------------------------------------------
B|----------------------------------------------------------------------------------------
G|----------------------------------------------------------------------------------------
D|----------------------------------------------------------------------------------------
A|-----------------------------------------8-----8----------------------------------------
D|--5--5--5--5--5--5--5--5--5--5--5--5--5-----5-----5--5--5--5--5--5--5--5--5--5--5--5--5-


E|-----------------------------------------------------------------------------------
B|-----------------------------------------------------------------------------------
G|-----------------------------------------------------------------------------------
D|--------------------------------------------3--4--------4--5-----------------------
A|--6-----6--------------------------------------------------------------------------
D|-----5-----5--5--5--5--5--5--5--5--3--0--3--------4--4--------5--5--5--5--5--5--5--

E|---------------------------------------------------------------------------------------
B|---------------------------------------------------------------------------------------
G|---------------------------------------------------------------------------------------
D|----------------------------------------------------------------3--4--------4--5-------
A|---------------------------------------------------------------------------------------
D|--8--5--8--9--10--8--10--11--11--12--0--0--0--0--0--0--3--0--3--------4--4------ repeat


Pre-chorus

E|----------------------------------------------------------------------------
B|----------------------------------------------------------------------------
G|--------------------------------5--5--7--7--10--10--8--8--8--8--8--8--8--8-- LET THAT LAST 8 RING A LITTLE WHILE PLAYING THE
D|--8--8--8--8--7--7--7--7--8--8---------------------------------------------- NEXT 7
A|----------------------------------------------------------------------------
D|----------------------------------------------------------------------------


E|--------------------------------------------------------------------------
B|--------------------------------------------------------------------------
G|--------------------------7--7--7--7--5--5--5--5--7--7--5--5--------------
D|--7--7--7--7--7--7--7--7--------------------------------------8--8--7--7--
A|--------------------------------------------------------------------------
D|--------------------------------------------------------------------------

E|--------------------------------------------------------------------------------------------------
B|--------------------------------------------------------------------------------------------------
G|--------------------------------------------------------------------------------------------------
D|--8--8--8--8--8--8--8--8--7--7--7--7--7--7--7--7--8-----8-----8-----8-----7-----7-----7-----7-----
A|-----------------------------------------------------5-----5-----5-----5-----5-----5-----5-----5--
D|--------------------------------------------------------------------------------------------------

The second time, the last bit is

E|--3-----3-----3-----3-----2-----2-----2-----2-----------
B|-----3-----3-----3-----3-----3-----3-----3-----3--------
G|--------------------------------------------------------
D|--------------------------------------------------------
A|--------------------------------------------------------
D|--------------------------------------------------------


Chorus

      PM----------                  PM----------
E|---------------------------------------------------------------
B|-----------------44444444444444----------------33333333333333--
G|-----------------55555553333333----------------33333332222222--
D|--5-555555555555-55555555555555-3-333333333333-33333333333333--
A|--5-555555555555-33333333333333-3-333333333333-11111111111111--
D|--5-555555555555----------------3-333333333333-----------------


E|-------------------------------------------------------------------------------------------------
B|-------------------------------------------------------------------------------------------------
G|-------------------------------------------------------------------------------------------------
D|--1--1--1--1--1--1--1--1--2--2--2--2--2--2--2--2--3--3--3--3--3--3--3--3--4--4--4--4--4--4--4--4-
A|-------------------------------------------------------------------------------------------------
D|--1--1--1--1--1--1--1--1--2--2--2--2--2--2--2--2--3--3--3--3--3--3--3--3--4--4--4--4--4--4--4--4-
         'no'                       'chance'                 'fate'                  'unnatural'

                  

E|---------------------------------------------------------
B|------------------------------------------------------3--
G|------------------------------------------------------3--
D|--5--5--5--5--5--5--5--5------1--1--1--1--3--3--3--3--3--
A|------------------------------------------------------1--
D|--5--5--5--5--5--5--5--5------1--1--1--1--3--3--3--3-----
          'selection'           'I'         'Want'   'Truth'


Breakdown

E|-----------
B|--------8--  WHAMMY BAR DROP, RETURN, DROP, RETURN. ETC
G|--7--7-----
D|-----------
A|-----------
D|----------- 

E|--------------
B|--------------  
G|-o-x----o-x---
D|-o-x----o-x---
A|-o-x----o-x---
D|-------------- 

==========================================================

E|---------------------------------------------------   
B|---------------------------------------------------
G|---------------------------------------------------
D|---------------------------------------------------
A|-------5~---------3~-----1~---12b13r12--10--9--15b-
D|--5~---------1~------------------------------------ x2

OR!

E|---------------------------------------------------    
B|---------------------------------------------------
G|---------------------------------------------------
D|---------------------------------------------------
A|-------5~---------3~-----5~---12b13r12--10--9--15b-
D|--5~---------1~------------------------------------ x2

==========================================================

E|------------
B|------------
G|--12b14r12~-  <-- okay.. here's what's going on. after the bend and release, continue holding that 12 note, vibrate it like crazy,
D|--x---------      while goiiing down the neck(stiilll vibrating) and then up the neck - all on the same string. 
A|--x---------      Go up and down the neck several times.
D|--x---------
    ^ mute strum

E|-------------------------------------
B|-------------------------------------
G|--10h12p10--15b16r15b16r15p14h15p14--
D|-------------------------------------
A|-------------------------------------
D|-------------------------------------


                             |---3---|                           
      Q   E   E   E   E      E   E   E   S  S  S  S  S  S  S  S  
E|------------------------|--------------------------------------|
B|------------------------|--------------------------------------|
G|--------12------12------|--12------12-----12----12----12----12-|
D|----12------12------12--|------12------12----12----12----12----|
A|------------------------|--------------------------------------|
D|------------------------|--------------------------------------|


   S  S  S  S  S  S  S  S  S  S  S  S     S  S  S  S  S  S  S  S  S  S  S  S  
--------------------------------------|--------------------------------------|
--------------------------------------|--------------------------------------|
-----12----12----12----12----12----12-|-----14----14----14----14----14----14-|
--13----13----13----13----13----13----|--13----13----13----13----13----13----|
--------------------------------------|--------------------------------------|
--------------------------------------|--------------------------------------|


   S  S  S  S  S  S  S  S  S  S  S   S   
----------------------------------------|
----------------------------------------|
-----15----15-15-15-15-15-15-15-15b-15b-|
--12----12-12-12-12-12-12-12-12-12b-12b-|
----------------------------------------|
----------------------------------------|


                                                      |---3---|             
   S   S   S   S   S   S   S   S   S   S   S   S      E   E   E            
--------------------------------------------------|------------------------|
--------------------------------------------------|------------------------|
--15b-15b-15b-15b-15b-15b-15b-15b-15b-15b-15b-15b-|--15--12--14------------|
--12--12--12--12--12--12--12--12--12--12--12--12--|------------------------|
--------------------------------------------------|------------------------|
--------------------------------------------------|------------------------|


   H                      
------------------|
------------------|
--17b-------------|
------------------|
------------------|
------------------|

Outro


E|----------------------------------------------
B|----------------------------------------------
G|----------------------------------------------
D|----------------------------------------------
A|---------8--------7---7---------6--------5----5-
D|---5--5-----5--5----5-----5--5-----5--5-----5-- x4

   PM----  PM-----  PM-   PM----   PM----   PM-
E|---------------------------------------------------
B|---------------------------------------------------
G|---------------------------------------------------
D|---------8--------7-----7---------6--------5-----5-
A|---5--5--8--5--5--7--5--7---5--5--6--5--5--5--5--5-
D|---5--5-----5--5-----5------5--5-----5--5-----5----    x4

(at the end of the second time this is played before you move to the 5th fret the recording has:
B|-15-                       (this is tremolo picked, so go as fast as you can) :)
G|-14- 
D|-12-  




Go back to tablature