House of the Rising Sun (tablature)

MuseWiki, wiki for the band Muse
Revision as of 20:34, 8 August 2009 by Tene (Talk | contribs)

(diff) ← Older revision | Latest revision (diff) | Newer revision → (diff)
Jump to: navigation, search
muse
house of the rising sun

 intro

e|-x-x-x-x-x-x-x-x-x-x-x-x-------------------|
b|-x-x-x-x-x-x-x-x-x-x-x-x-------------------|
G|-x-x-x-x-x-x-x-x-x-x-x-x-------------------|
D|-x-x-x-x-x-x-x-x-x-x-x-x-------------------|
A|-x-x-x-x-x-x-x-x-x-x-x-x-------------------|
E|-x-x-x-x-x-x-x-x-x-x-x-x-------------------|

  <----behind the nut---->


 thumping bit

e|-1-1-1-1-1-1---1---1-----------------------|
b|-1-1-1-1-1-1---1---1-----------------------|
G|-1-1-1-1-1-1---1---1-----------------------|
D|-1-1-1-1-1-1---1---1-----------------------|
A|-1-1-1-1-1-1---1---1-----------------------|
E|-1-1-1-1-1-1---1---1-----------------------|

 These are harmonics with the finger resting
on the strings rather then pressing down
playing them. this creates the thudding type
sound used throughout the song


pre verse 1

   Am          C           D           F
e|-0-0-0-0-0-0-0-0-0-0-0-0-2-2-2-2-2-2-1-1-1-1-1-1-|
b|-1-1-1-1-1-1-1-1-1-1-1-1-3-3-3-3-3-3-1-1-1-1-1-1-|
G|-2-2-2-2-2-2-0-0-0-0-0-0-2-2-2-2-2-2-2-2-2-2-2-2-|
D|-2-2-2-2-2-2-2-2-2-2-2-2-0-0-0-0-0-0-3-3-3-3-3-3-|
A|-0-0-0-0-0-0-3-3-3-3-3-3-x-x-x-x-x-x-3-3-3-3-3-3-|
E|-x-x-x-x-x-x-x-x-x-x-x-x-x-x-x-x-x-x-1-1-1-1-1-1-|

   Am          E           Am          B
e|-0-0-0-0-0-0-0-0-0-0-0-0-0-0-0-0-0-0-x-x-x-x-x-x-|
b|-1-1-1-1-1-1-0-0-0-0-0-0-1-1-1-1-1-1-x-x-x-x-x-x-|
G|-2-2-2-2-2-2-1-1-1-1-1-1-2-2-2-2-2-2-4-4-4-4-4-4-|
D|-2-2-2-2-2-2-2-2-2-2-2-2-2-2-2-2-2-2-4-4-4-4-4-4-|
A|-0-0-0-0-0-0-2-2-2-2-2-2-0-0-0-0-0-0-2-2-2-2-2-2-|
E|-x-x-x-x-x-x-0-0-0-0-0-0-x-x-x-x-x-x-x-x-x-x-x-x-|


Verse

   Am          C           D           F
e|-0-0-0-0-0-0-0-0-0-0-0-0-2-2-2-2-2-2-1-1-1-1-1-1-|
b|-1-1-1-1-1-1-1-1-1-1-1-1-3-3-3-3-3-3-1-1-1-1-1-1-|
G|-2-2-2-2-2-2-0-0-0-0-0-0-2-2-2-2-2-2-2-2-2-2-2-2-|
D|-2-2-2-2-2-2-2-2-2-2-2-2-0-0-0-0-0-0-3-3-3-3-3-3-|
A|-0-0-0-0-0-0-3-3-3-3-3-3-x-x-x-x-x-x-3-3-3-3-3-3-|
E|-x-x-x-x-x-x-x-x-x-x-x-x-x-x-x-x-x-x-1-1-1-1-1-1-|


   Am          G           E
e|-0-0-0-0-0-0-3-3-3-3-3-3-0-0-0-0-0-0-0-0-0-0-0-0-|
b|-1-1-1-1-1-1-0-0-0-0-0-0-0-0-0-0-0-0-0-0-0-0-0-0-|
G|-2-2-2-2-2-2-0-0-0-0-0-0-1-1-1-1-1-1-1-1-1-1-1-1-|
D|-2-2-2-2-2-2-0-0-0-0-0-0-2-2-2-2-2-2-2-2-2-2-2-2-|
A|-0-0-0-0-0-0-2-2-2-2-2-2-2-2-2-2-2-2-2-2-2-2-2-2-|
E|-x-x-x-x-x-x-3-3-3-3-3-3-0-0-0-0-0-0-0-0-0-0-0-0-|


   Am          C           D           F
e|-0-0-0-0-0-0-0-0-0-0-0-0-2-2-2-2-2-2-1-1-1-1-1-1-|
b|-1-1-1-1-1-1-1-1-1-1-1-1-3-3-3-3-3-3-1-1-1-1-1-1-|
G|-2-2-2-2-2-2-0-0-0-0-0-0-2-2-2-2-2-2-2-2-2-2-2-2-|
D|-2-2-2-2-2-2-2-2-2-2-2-2-0-0-0-0-0-0-3-3-3-3-3-3-|
A|-0-0-0-0-0-0-3-3-3-3-3-3-x-x-x-x-x-x-3-3-3-3-3-3-|
E|-x-x-x-x-x-x-x-x-x-x-x-x-x-x-x-x-x-x-1-1-1-1-1-1-|

e|-0-0-0-0-0-0-0-0-0-0-0-0-0-0-0------|
b|-1-1-1-1-1-1-0-0-0-0-0-0-1-1-1------|
G|-2-2-2-2-2-2-1-1-1-1-1-1-2-2-2------|
D|-2-2-2-2-2-2-2-2-2-2-2-2-2-2-2------|
A|-0-0-0-0-0-0-2-2-2-2-2-2-0-0-0------|
E|-x-x-x-x-x-x-0-0-0-0-0-0-x-x-x------|


into between verse lick:

e|-------------------------------------------|
b|-5---5-3-1-5---7---7-5-3-5(bend to 6)------|
G|-------------------------------------------|
D|-------------------------------------------|
A|-------------------------------------------|
E|-------------------------------------------|

e|-------------------------------------------|
b|-5---5-3-1-5---5-3-1-----------------------|
G|---------------------4/2---2/4-------------|
D|-------------------------------------------|
A|-------------------------------------------|
E|-------------------------------------------|


intro
thumping bit (x8)
pre verse
verse
lick
verse
lick
thumping bit (x8)
verse
thumping bit (x12)

Lyrics


      Am   C        D          F
There is a house in New Orleans
     Am       G      E
They call the rising sun
         Am       C       D      F
Well its been the ruin of many a poor boy
    Am    E       Am
and god i know im one


Oh mother tell your children
Not to do what I have done
Spend your lives in sin and misery
In the House of the Rising Sun

There is a house in New Orleans
They call the Rising Sun
And it's been the ruin of many a poor boy
And God I know I'm one


Go back to tablature