Uprising (tablature)

MuseWiki, wiki for the band Muse
Jump to: navigation, search

Tabbed by Liam Cameron within a few hours of hearing it, so it might not be perfect...

Added to and amended by Nick. Chorus corrected by Phill. Tunning and Guitar corrected by Adam. Live outro added by Ari.

Muse Tab
Name Uprising
Length 05:02
Tuning DGDGBE
Tempo 130bpm
Timing 4/4 (with triplet feel)

Guitar

Opening: (adapted from http://www.ultimate-guitar.com/tabs/m/muse/uprising_ver4_tab.htm)

      W                    H         H            W
E |--17----------------|----------------------|--------------------|
B |--------------------|--18------------------|--------------------|
G |--------------------|----------------------|--------------------|
D |--------------------|------------19--------|--20----------------|
G |--------------------|----------------------|--------------------|
D |--------------------|----------------------|--------------------|


   S   S  H.                  H         H            H         H
--------------------------|--17------------------|----------------------|
--------------------------|------------17--------|----------------------|
--------------------------|----------------------|--18------------------|
--22p-20-19---------------|----------------------|------------19--------|
--------------------------|----------------------|----------------------|
--------------------------|----------------------|----------------------|


   W                    S   S  H.                 Q     Q     Q     Q
--18----------------|--20p-18-17---------------|--17----------------------|
--------------------|--------------------------|--------18----------------|
--------------------|--------------------------|--------------19----------|
--------------------|--------------------------|--------------------19----|
--------------------|--------------------------|--------------------------|
--------------------|--------------------------|--------------------------|


   Q     Q     Q     Q        W                    S   S  H.
--------------17----------|--18----------------|--18p-15-17---------------|
--------18----------------|--------------------|--------------------------|
--19----------------19----|--------------------|--------------------------|
--------------------------|--------------------|--------------------------|
--------------------------|--------------------|--------------------------|
--------------------------|--------------------|--------------------------|


   Q     Q     Q     Q        Q     Q     Q     Q        W
--17----------------------|--------------17----------|--15----------------|
--------17----------------|--------17----------------|--------------------|
--------------18----------|--18----------------18----|--------------------|
--------------------19----|--------------------------|--------------------|
--------------------------|--------------------------|--------------------|
--------------------------|--------------------------|--------------------|


   S   S  H.
--15p-12-13------||
-----------------||
-----------------||
-----------------||
-----------------||
-----------------||

"So come on!":
E |--------------|
B |--15--15s\----|
G |--17b-17bs\---|
D |--------------|
G |--------------|
D |--------------|

Verse:
E |-----------------------------|
B |-----------------------------|
G |-77-7--77-7--77-7--7-7-7-7---|
D |-----------------------------|
G |-77-7--77-7--77-7--7-7-7-7---|
D |-----------------------------|

E |-----------------------------|
B |-----------------------------|
G |-77-7--77-7--75-5--5-5-5-5---|
D |-----------------------------|
G |-77-7--77-7--75-5--5-5-5-5---|
D |-----------------------------|

E |-----------------------------|
B |-----------------------------|
G |-66-6--66-6--66-6--6-6-6-6---|
D |-----------------------------|
G |-66-6--66-6--66-6--6-6-6-6---|
D |-----------------------------|

E |----------------------------------------------|
B |------------------------------------15--15s\--|
G |-x-7--7--x-7--7--x-7--7--x-7-7-7-7--17b-17bs\-|
D |----------------------------------------------|
G |-x-7--7--x-7--7--x-7--7--x-7-7-7-7------------|
D |----------------------------------------------|

Chorus:
E |--5----5-------5--5----5-------5--|--5----5-------5--5----5--5----5--|
B |--6----6-------6--6----6-------6--|--6----6-------6--6----6--6----6--|
G |--7----7-------7--7----7-------7--|--7----7-------7--7----7--7----7--|
D |--7----7-------7--7----7-------7--|--7----7-------7--7----7--7----7--|
G |----------------------------------|----------------------------------|
D |----------------------------------|----------------------------------|
  
E |--6----6-------6--6----6-------6--|--5----5-------5--5----5--5----5--|
B |--8----8-------8--8----8-------8--|--6----6-------6--6----6--6----6--|
G |--7----7-------7--7----7-------7--|--5----5-------5--5----5--5----5--|
D |--8----8-------8--8----8-------8--|--7----7-------7--7----7--7----7--|
G |----------------------------------|----------------------------------|
D |----------------------------------|----------------------------------|

E |--5----5-------5--5----5-------5--|--5----5-------5--5----5--5----5--|
B |--5----5-------5--5----5-------5--|--5----5-------5--5----5--5----5--|
G |--6----6-------6--6----6-------6--|--6----6-------6--6----6--6----6--|
D |--7----7-------7--7----7-------7--|--7----7-------7--7----7--7----7--|
G |----------------------------------|----------------------------------|
D |----------------------------------|----------------------------------|

E |--6----6-------6--6----6-------6--|--5----5-------5------------------|
B |--8----8-------8--8----8-------8--|--6----6-------6--8----8--8----8--|
G |--7----7-------7--7----7-------7--|--5----5-------5--6----6--6----6--|
D |--8----8-------8--8----8-------8--|--7----7-------7--7----7--7----7--|
G |----------------------------------|----------------------------------|
D |----------------------------------|----------------------------------|

E |--5----5-------5--5----5-------5--|--5----5-------5--5----5--5----5--|
B |--6----6-------6--6----6-------6--|--6----6-------6--6----6--6----6--|
G |--7----7-------7--7----7-------7--|--7----7-------7--7----7--7----7--|
D |--7----7-------7--7----7-------7--|--7----7-------7--7----7--7----7--|
G |----------------------------------|----------------------------------|
D |----------------------------------|----------------------------------|

E |--6----6-------6--6----6-------6--|--5----5-------5------------------|
B |--8----8-------8--8----8-------8--|--6----6-------6--6----6--6----6--|
G |--7----7-------7--7----7-------7--|--5----5-------5--7----7--7----7--|
D |--8----8-------8--8----8-------8--|--7----7-------7--6----6--6----6--|
G |----------------------------------|----------------------------------|
D |----------------------------------|----------------------------------|

E |--5----5-------5--5----5-------5--|--5----5-------5--5----5--5----5--|
B |--5----5-------5--5----5-------5--|--5----5-------5--5----5--5----5--|
G |--6----6-------6--6----6-------6--|--6----6-------6--6----6--6----6--|
D |--7----7-------7--7----7-------7--|--7----7-------7--7----7--7----7--|
G |----------------------------------|----------------------------------|
D |----------------------------------|----------------------------------|

E |--6----6-------6--6----6-------6--|--5----5-------5--5----5--------------|
B |--8----8-------8--8----8-------8--|--6----6-------6--5----5--15-----15---|
G |--7----7-------7--7----7-------7--|--5----5-------5--6----6--17b----17b--|
D |--8----8-------8--8----8-------8--|--7----7-------7--7----7--------------|
G |----------------------------------|--------------------------------------|
D |----------------------------------|--------------------------------------|

Solo:
E |----------------------------------------------------------------------------|
B |----------------------------------------------------------------------------|
G |----------------------------------------------------------------------------|
D |----------------------------------------------------------------------------|
G |-------------5h6h7--------------5h6h7--------------5h6h7--------------5h6h7-|
D |-0--3--5h6h7--------0--3--5h6h7--------0--3--5h6h7--------0--3--5h6h7-------|

E |----------------------------------------------------------------------------------------|
B |------------------------------------------------------------------------------15--15s\--|
G |-14-14-13-14-12-14----14----14----14----14-------15-14-15-14--14-14-12-14-----17b-17bs\-|
D |-------------------15----14----12----11-------------------------------------------------|
G |-------------------------------------------14s\--15-14-15-14--14-14-12-14s\0------------|
D |----------------------------------------------------------------------------------------|

Live Outro (Teignmouth Version):

E |------------|     E |-------------------|
B |-15--15-15--|     B |-15--15-15-15--17--|
G |-17b-17-17r-| x3  G |-17b-17-17-17--17r-|
D |------------|     D |-------------------|
G |------------|     G |-------------------|
D |------------|     D |-------------------|

E |--------------------------------------------------------------------------|
B |--------------------------------------------------------------------------|
G |--------------------------------------------------------------------------|
D |--------------------------------------------------------------------------|
G |-------------5h6h7-------------5h6h7-------------5h6h7--------------5h6h7-|
D |-0--3--5h6h7--------0--3--5h6h7--------0--3--5h6h7-------0--3--5h6h7------|

E |----------------------------------------------------------------------------------------------|
B |----------------------------------------------------------------------------------------------|
G |----------------------------------------------------------------------------------------------|
D |----------------------------------------------------------------------------------------------|
G |-------------5h6h7-------------5h6h7--------------5h6h7--------------5h6h7--7--10-------5h6h7-|
D |-0--3--5h6h7--------0--3--5h6h7--------0--3--5h6h7-------0--3--5h6h7-------------5h6h7--------|

E |-------------------------------------------------------------------------------------------------------------------------|
B |-------------------------------------------------------------------------------------------------------------------------|
G |-------------------------------------------------------------------------------------------------------------------------|
D |-------------------------------------------------------------------------------------------------------------------------|
G |-------------5h6h7--7--10--------5h6h7---------------5h6h7--7br-10br--------5h6h7---------------5h6h7--7--10-------5h6h7-|
D |-0--3--5h6h7---------------5h6h7---------0--3--5h6h7-------|---------|-5h6h7--------0--3--5h6h7---------------5h6h7------|
                                                            [Oct. Pedal +1]
E |----------------------------------------------------------|
B |-------------------------------------------------15--15---|
G |-------------------------------------------------17b-17br-|
D |----------------------------------------------------------|
G |-------------5h6h7--7--10----10--12~~~-12--14~~~----------|
D |-0--3--5h6h7----------------------------------------------|

Bass

G|---7---7-|----12----12-|---10---10-|----14----14-|----12----12-|---10---5--|
D|---------|-------------|-----------|-------------|-------------|-----------|
A|-5---5---|-10----10----|-8----8----|-12----12----|-10----10----|-8----3----|
E|---------|-------------|-----------|-------------|-------------|-----------|

G|---7---7-|----12----12-|---10----13-|----14----14-|----12----12-|---10---5--|
D|---------|-------------|------------|-------------|-------------|-----------|
A|-5---5---|-10----10----|-8----11----|-12----12----|-10----10----|-8----3----|
E|---------|-------------|------------|-------------|-------------|-----------|


Go back to tablature