Unsustainable (tablature)

MuseWiki, wiki for the band Muse
Jump to: navigation, search

Supremacy tab arranged for guitar, according to what we have seen in the second law trailer. Thanks to divided123[1] on YouTube for this.

Tempo is approximatly 135bpm.

Background riff

E|--------------------------------------------------------------------|
B|--------------------------------------------------------------------|
G|--------------------------------------------------------------------|
D|7-7-7-7-10-7-7-7-7-7-7-7-10-7-7-7-7-7-7-7-10-7-7-7-12-7-10-7-9-7-6-6|
A|--------------------------------------------------------------------|
E|--------------------------------------------------------------------|

E|---------------------------------------------------------------------|
B|---------------------------------------------------------------------|
G|---------------------------------------------------------------------|
D|7-7-7-7-10-7-7-7-7-7-7-7-10-7-7-7-7-7-7-7-10-7-7-7-12-10-9-10-9-7-6-6|
A|---------------------------------------------------------------------|
E|---------------------------------------------------------------------|

Between the two main riffs of the trailer, you can play this:
E|---------------------------------------------------------------------------------------------|
B|---------------------------------------------------------------------------------------------|
G|---------------------------------------------------------------------------------------------|
D|10-10-10-10-13-10-10-10-10-10-10-10-13-10-10-10-10-10-10-10-13-10-10-10-15-10-13-10-12-10-9-9|
A|---------------------------------------------------------------------------------------------|
E|---------------------------------------------------------------------------------------------|

E|---------------------------------------------------------------------------------------------|
B|---------------------------------------------------------------------------------------------|
G|---------------------------------------------------------------------------------------------|
D|10-10-10-10-13-10-10-10-10-10-10-10-13-10-10-10-10-10-10-10-13-10-10-10-15-13-12-13-12-10-9-9|
A|---------------------------------------------------------------------------------------------|
E|---------------------------------------------------------------------------------------------|

Main riff, rhythm is not respected


(Before the woman speaks)
E|------------------------------------------------------------------------------------------------|
B|------------------------------------------------------------------------------------------------|
G|--------------9tr--10tr----12tr---14tr------16tr---9tr---14tr----12tr---10tr--­--s10tr-----5tr---|
D|-7tr--10tr--------------------------------------------------------------------­------------------|
A|------------------------------------------------------------------------------------------------|
E|------------------------------------------------------------------------------------------------|

(During her speech)
E|------------------------------------------------------------------------------------------------|
B|------------------------------------------------------------------------------------------------|
G|-------------9~------------9-10~-------------9--10~---10--9~-----------9~-----­-----7~-----------|
D|----7--10--------7--10-------------7--10--------------------------7--10------7­--10------7-10----|
A|-7----------------------------------------------------------------------------­------------------|
E|------------------------------------------------------------------------------------------------|


Go back to The 2nd Law (album)
Go back to Unsustainable (song)
Go back to tablature