Undisclosed Desires (tablature)

MuseWiki, wiki for the band Muse
Jump to: navigation, search

Tabs

Keytar transcribed for Guitar
Transcribed by: DSpek

REPEAT THROUGHOUT THE ENTIRE SONG

     Eb
               ^     ^  ^                 ^     ^  ^   
E--------------------------|--------------------------|
B--------------4-----------|--------------4-----------|
G--------3-----------3-----|--------2-----------3-----|
D-----5-----5-----5-----5--|-----5-----5-----5-----5--|
A--------------------------|--------------------------|
E--------------------------|--------------------------|

    Gm
              ^     ^  ^                 ^     ^  ^   
--------------------------|--------------------------|
--------------3-----------|--------------3-----------|
--------3-----------3-----|--------2-----------3-----|
-----5-----5-----5-----5--|-----5-----5-----5-----5--|
--------------------------|--------------------------|
--------------------------|--------------------------|

^ = Accentuate these notes(strike the note harder)

Chords

Transcribed by DSpek

VERSE I
(Eb)
I know you suffered
### (Gm)
But I don't want you to hide
(Eb)
It's cold and loveless
#### (Gm)
I won't let you be denied

(Eb)
Soothe me
(Gm)
I'll make you feel pure
(Eb)
Trust me
(Gm)
You can be sure

CHORUS
Cm Eb Gm Bb
I want to reconcile the violence in your heart
Cm Eb Gm Bb
I want to recognize your beauty is not just a mask
Cm Eb Gm Bb
I want to exorcise the demons from your past
Cm Eb Gm Bb
I want to satisfy the undisclosed desires in your heart

VERSE II
(Eb)
You take your lovers that you're
(Gm)
Wicked and divine
(Eb)
You may be a sinner
##### (Gm)
But your innocence is mine

(Eb)
Please me
(Gm)
Show me how it's done
(Eb)
Tease me
(Gm)
You are the one

CHORUS
Cm Eb Gm Bb
I want to reconcile the violence in your heart
Cm Eb Gm Bb
I want to recognize your beauty is not just a mask
Cm Eb Gm Bb
I want to exorcise the demons from your past
Cm Eb Gm Bb
I want to satisfy the undisclosed desires in your heart

VERSE III
(Eb)
Please me
(Gm)
Show me how it's done
(Eb)
Trust me
(Gm)
You are the one

CHORUS
Cm Eb Gm Bb
I want to reconcile the violence in your heart
Cm Eb Gm Bb
I want to recognize your beauty is not just a mask
Cm Eb Gm Bb
I want to exorcise the demons from your past
Cm Eb Gm Bb
I want to satisfy the undisclosed desires in your heart

OUTRO
(Eb)
(Gm)
(Eb)
(Gm)

Bass


Verse (this may be bass or a synth)
   Eb           Gm
G|------------|------------|   
D|------------|------------| repeat  
A|-(6)--------|-(10)-------|   
E|------------|------------|    

Pre-Chorus (second and third only)
   Eb           Gm
G|------8-----|------------|
D|------------|------5-----|
A|-6-66---6---|------------| x2
E|------------|-3-33---3---|
   S SS P S     S SS P S

Chorus
   Cm           Eb           Gm           Bb
G|------5-----|------8-----|------------|------3-----|
D|------------|------------|------5-----|------------|
A|-3-33---3---|-6-66---6---|------------|-1-11---1---| x4
E|-----------6|-----------1|-3-33---3--1|------------|
   S SS P S  S  S SS P S   S  S SS P S  S  S SS P S


Legend
| S  thumb slap
| P  pop
|( ) optional notes
=======================================================


Go back to Tablature