The Gallery (tablature)

MuseWiki, wiki for the band Muse
Jump to: navigation, search

Guitar

This is the piano part tabbed for guitar.


e|--19-----19----20----22----20----19----------------|
B|---------------------------------------22----20----|
G|------21----21----21----21----21----21----21----21-|
D|---------------------------------------------------|
A|---------------------------------------------------|
E|---------------------------------------------------|

e|--------19----20----22----20----19----------------|
B|--22----------------------------------22----20----|
G|-----21----21----21----21----21----21----21----21-|
D|--------------------------------------------------|
A|--------------------------------------------------|
E|--------------------------------------------------|

e|--------19----20----22----20----19----------------|
B|--22----------------------------------22----20----|
G|-----21----21----21----21----21----21----21----21-|
D|--------------------------------------------------|
A|--------------------------------------------------|
E|--------------------------------------------------|

e|--------19----20----22----20----19----------------|
B|--22----------------------------------22----20----|
G|-----21----21----21----21----21----21----21----21-|
D|--------------------------------------------------|
A|--------------------------------------------------|
E|--------------------------------------------------|

e|--------19----20----22----20----19----------------|
B|--22----------------------------------22----20----|
G|-----21----21----21----21----21----21----21----21-|
D|--------------------------------------------------|
A|--------------------------------------------------|
E|--------------------------------------------------|

e|--------19----20----22----20----19----------------|
B|--22----------------------------------22----20----|
G|-----21----21----21----21----21----21----21----21-|
D|--------------------------------------------------|
A|--------------------------------------------------|
E|--------------------------------------------------|

e|--------19----20----22----20----19----------------|
B|--22----------------------------------22----20----|
G|-----21----21----21----21----21----21----21----21-|
D|--------------------------------------------------|
A|--------------------------------------------------|
E|--------------------------------------------------

e|--------19----20----22----20----19----------------|
B|--22----------------------------------22----20----|
G|-----21----21----21----21----21----21----21----21-|
D|--------------------------------------------------|
A|--------------------------------------------------|
E|--------------------------------------------------|

e|---------19----20----22----20----19----------------|
B|---22----------------------------------22----20----|
G|------21----21----21----21----21----21----21----21-|
D|---------------------------------------------------|
A|---------------------------------------------------|
E|---------------------------------------------------|

e|--------19----20----22----20----19----------------|
B|--22----------------------------------22----20----|
G|-----21----21----21----21----21----21----21----21-|
D|--------------------------------------------------|
A|--------------------------------------------------|
E|--------------------------------------------------|

e|--------19----20----22----20----19----------------|
B|--22----------------------------------22----20----|
G|-----21----21----21----21----21----21----21----21-|
D|--------------------------------------------------|
A|--------------------------------------------------|
E|--------------------------------------------------|

e|--------19----20----22----20----19----------------|
B|--22----------------------------------22----20----|
G|-----21----21----21----21----21----21----21----21-|
D|--------------------------------------------------|
A|--------------------------------------------------|
E|--------------------------------------------------|

e|--------19----20----22----20----19----------------|
B|--22----------------------------------22----20----|
G|-----21----21----21----21----21----21----21----21-|
D|--------------------------------------------------|
A|--------------------------------------------------|
E|--------------------------------------------------|

e|--------19----20----22----20----19----------------|
B|--22----------------------------------22----20----|
G|-----21----21----21----21----21----21----21----21-|
D|--------------------------------------------------|
A|--------------------------------------------------|
E|--------------------------------------------------|

e|--------19----20----22----20----19----------------|
B|--22----------------------------------22----20----|
G|-----21----21----21----21----21----21----21----21-|
D|--------------------------------------------------|
A|--------------------------------------------------|
E|--------------------------------------------------|

e|--------19----20----22----20----19----------------|
B|--22----------------------------------22----20----|
G|-----21----21----21----21----21----21----21----21-|
D|--------------------------------------------------|
A|--------------------------------------------------|
E|--------------------------------------------------|

e|--------19----20----22----20----19----------------|
B|--22----------------------------------22----20----|
G|-----21----21----21----21----21----21----21----21-|
D|--------------------------------------------------|
A|--------------------------------------------------|
E|--------------------------------------------------|

e|--------19----20----22----20----19----------------|
B|--22----------------------------------22----20----|
G|-----21----21----21----21----21----21----21----21-|
D|--------------------------------------------------|
A|--------------------------------------------------|
E|--------------------------------------------------|

e|--------19----20----22----20----19----------------|
B|--22----------------------------------22----20----|
G|-----21----21----21----21----21----21----21----21-|
D|--------------------------------------------------|
A|--------------------------------------------------|
E|--------------------------------------------------|

e|--------19----20----22----20----19----------------|
B|--22----------------------------------22----20----|
G|-----21----21----21----21----21----21----21----21-|
D|--------------------------------------------------|
A|--------------------------------------------------|
E|--------------------------------------------------|

e|--------19----20----22----20----19----------------|
B|--22----------------------------------22----20----|
G|-----21----21----21----21----21----21----21----21-|
D|--------------------------------------------------|
A|--------------------------------------------------|
E|--------------------------------------------------|

e|--------19----20----22----20----19----------------|
B|--22----------------------------------22----20----|
G|-----21----21----21----21----21----21----21----21-|
D|--------------------------------------------------|
A|--------------------------------------------------|
E|--------------------------------------------------|

e|--------19----20----22----20----19----------------|
B|--22----------------------------------22----20----|
G|-----21----21----21----21----21----21----21----21-|
D|--------------------------------------------------|
A|--------------------------------------------------|
E|--------------------------------------------------|

e|--------19----20----22----20----19----------------|
B|--22----------------------------------22----20----|
G|-----21----21----21----21----21----21----21----21-|
D|--------------------------------------------------|
A|--------------------------------------------------|
E|--------------------------------------------------|

e|--7-------7-------6----------6-------|
B|----8---8---8---8------8---8---8---8-|
G|------9-------9----------9-------9---|
D|-------------------------------------|
A|-------------------------------------|
E|-------------------------------------|

e|--5-------5-------5-------6-------|
B|----8---8---8---8---8---8---8---8-|
G|------8-------8-------8-------8---|
D|----------------------------------|
A|----------------------------------|
E|----------------------------------|

e|--7-------7-------6----------6-------|
B|----8---8---8---8------8---8---8---8-|
G|------9-------9----------9-------9---|
D|-------------------------------------|
A|-------------------------------------|
E|-------------------------------------|

e|--5-------5-------5-------6-------|
B|----8---8---8---8---8---8---8---8-|
G|------8-------8-------8-------8---|
D|----------------------------------|
A|----------------------------------|
E|----------------------------------|

e|--7-------7-------8---------8-------|
B|----8---8---8---8-----8---8---8---8-|
G|------9-------9---------9-------9---|
D|------------------------------------|
A|------------------------------------|
E|------------------------------------|

e|--8--------8--------9--------9--------|
B|----9----9---9----9---9----9---9----9-|
G|------10-------10-------10-------10---|
D|--------------------------------------|
A|--------------------------------------|
E|--------------------------------------|

e|--9--------9--------10--------10--------|
B|----9----9---9----9----9----9----9----9-|
G|------10-------10--------10--------10---|
D|----------------------------------------|
A|----------------------------------------|
E|----------------------------------------|

e|--11--------11--------11--------9--------|
B|-----9----9----9----9----9----9---9----9-|
G|-------12--------12--------12-------12---|
D|-----------------------------------------|
A|-----------------------------------------|
E|-----------------------------------------|

e|--9--------9--------10--------10--------|
B|----9----9---9----9----9----9----9----9-|
G|------10-------10--------10--------10---|
D|----------------------------------------|
A|----------------------------------------|
E|----------------------------------------|

e|--8--------8--------8--------8--------|
B|----9----9---9----9---8----8---8----8-|
G|------10-------10-------10-------10---|
D|--------------------------------------|
A|--------------------------------------|
E|--------------------------------------|

e|--8-------8-------8-------8---------|
B|----8---8---8---8---8---8---8---8---|
G|------9-------9-------9-------9-----|
D|------------------------------------|
A|------------------------------------|
E|------------------------------------|

e|---------19----20----22----20----19----------------|
B|---22----------------------------------22----20----|
G|------21----21----21----21----21----21----21----21-|
D|---------------------------------------------------|
A|---------------------------------------------------|
E|---------------------------------------------------|

e|--------19----20----22----20----19----------------|
B|--22----------------------------------22----20----|
G|-----21----21----21----21----21----21----21----21-|
D|--------------------------------------------------|
A|--------------------------------------------------|
E|--------------------------------------------------|

e|--------19----20----22----20----19----------------|
B|--22----------------------------------22----20----|
G|-----21----21----21----21----21----21----21----21-|
D|--------------------------------------------------|
A|--------------------------------------------------|
E|--------------------------------------------------|

e|--------19----20----22----20----19----------------|
B|--22----------------------------------22----20----|
G|-----21----21----21----21----21----21----21----21-|
D|--------------------------------------------------|
A|--------------------------------------------------|
E|--------------------------------------------------|

e|--------19----20----22----20----19----------------|
B|--22----------------------------------22----20----|
G|-----21----21----21----21----21----21----21----21-|
D|--------------------------------------------------|
A|--------------------------------------------------|
E|--------------------------------------------------|

e|--------19----20----22----20----19----------------|
B|--22----------------------------------22----20----|
G|-----21----21----21----21----21----21----21----21-|
D|--------------------------------------------------|
A|--------------------------------------------------|
E|--------------------------------------------------|

e|--------19----20----22----20----19----------------|
B|--22----------------------------------22----20----|
G|-----21----21----21----21----21----21----21----21-|
D|--------------------------------------------------|
A|--------------------------------------------------|
E|--------------------------------------------------|

e|--------19----20----22----20----19----------------|
B|--22----------------------------------22----20----|
G|-----21----21----21----21----21----21----21----21-|
D|--------------------------------------------------|
A|--------------------------------------------------|
E|--------------------------------------------------|

e|--------19----20----22----20----19----------------|
B|--22----------------------------------22----20----|
G|-----21----21----21----21----21----21----21----21-|
D|--------------------------------------------------|
A|--------------------------------------------------|
E|--------------------------------------------------|

e|--------19----20----22----20----19----------------|
B|--22----------------------------------22----20----|
G|-----21----21----21----21----21----21----21----21-|
D|--------------------------------------------------|
A|--------------------------------------------------|
E|--------------------------------------------------|

e|--------19----20----22----20----19----------------|
B|--22----------------------------------22----20----|
G|-----21----21----21----21----21----21----21----21-|
D|--------------------------------------------------|
A|--------------------------------------------------|
E|--------------------------------------------------|

e|--------19----20----22----20----19----------------|
B|--22----------------------------------22----20----|
G|-----21----21----21----21----21----21----21----21-|
D|--------------------------------------------------|
A|--------------------------------------------------|
E|--------------------------------------------------|

e|--------19----20----22----20----19----------------|
B|--22----------------------------------22----20----|
G|-----21----21----21----21----21----21----21----21-|
D|--------------------------------------------------|
A|--------------------------------------------------|
E|--------------------------------------------------|

e|--------19----20----22----20----19----------------|
B|--22----------------------------------22----20----|
G|-----21----21----21----21----21----21----21----21-|
D|--------------------------------------------------|
A|--------------------------------------------------|
E|--------------------------------------------------|

e|--------19----20----22----20----19----------------|
B|--22----------------------------------22----20----|
G|-----21----21----21----21----21----21----21----21-|
D|--------------------------------------------------|
A|--------------------------------------------------|
E|--------------------------------------------------|

e|--------19----20----22----20----19----------------|
B|--22----------------------------------22----20----|
G|-----21----21----21----21----21----21----21----21-|
D|--------------------------------------------------|
A|--------------------------------------------------|
E|--------------------------------------------------|

e|--7-------7-------6-------6-------|
B|----8---8---8---8---8---8---8---8-|
G|------9-------9-------9-------9---|
D|----------------------------------|
A|----------------------------------|
E|----------------------------------|

e|--5-------5-------5-------6-------|
B|----8---8---8---8---8---8---8---8-|
G|------8-------8-------8-------8---|
D|----------------------------------|
A|----------------------------------|
E|----------------------------------|

e|--7-------7-------6-------6-------|
B|----8---8---8---8---8---8---8---8-|
G|------9-------9-------9-------9---|
D|----------------------------------|
A|----------------------------------|
E|----------------------------------|

e|--5-------5-------5-------6-------|
B|----8---8---8---8---8---8---8---8-|
G|------8-------8-------8-------8---|
D|----------------------------------|
A|----------------------------------|
E|----------------------------------|

e|--7-------7-------8-------8-------|
B|----8---8---8---8---8---8---8---8-|
G|------9-------9-------9-------9---|
D|----------------------------------|
A|----------------------------------|
E|----------------------------------|

e|--8--------8--------9--------9--------|
B|----9----9---9----9---9----9---9----9-|
G|------10-------10-------10-------10---|
D|--------------------------------------|
A|--------------------------------------|
E|--------------------------------------|

e|--9--------9--------10--------10--------|
B|----9----9---9----9----9----9----9----9-|
G|------10-------10--------10--------10---|
D|----------------------------------------|
A|----------------------------------------|
E|----------------------------------------|

e|--11--------11--------11--------9--------|
B|-----9----9----9----9----9----9---9----9-|
G|-------12--------12--------12-------12---|
D|-----------------------------------------|
A|-----------------------------------------|
E|-----------------------------------------|

e|--9--------9--------10--------10--------|
B|----9----9---9----9----9----9----9----9-|
G|------10-------10--------10--------10---|
D|----------------------------------------|
A|----------------------------------------|
E|----------------------------------------|

e|--8--------8--------8--------8--------|
B|----9----9---9----9---8----8---8----8-|
G|------10-------10-------10-------10---|
D|--------------------------------------|
A|--------------------------------------|
E|--------------------------------------|

e|--8-------8-------8-------8---------|
B|----8---8---8---8---8---8---8---8---|
G|------9-------9-------9-------9-----|
D|------------------------------------|
A|------------------------------------|
E|------------------------------------|

e|----------19----20----22----20----19----------------|
B|--22------------------------------------22----20----|
G|-------21----21----21----21----21----21----21----21-|
D|----------------------------------------------------|
A|----------------------------------------------------|
E|----------------------------------------------------|

e|--------19----20----22----20----19----------------|
B|--22----------------------------------22----20----|
G|-----21----21----21----21----21----21----21----21-|
D|--------------------------------------------------|
A|--------------------------------------------------|
E|--------------------------------------------------|

e|--------19----20----22----20----19----------------|
B|--22----------------------------------22----20----|
G|-----21----21----21----21----21----21----21----21-|
D|--------------------------------------------------|
A|--------------------------------------------------|
E|--------------------------------------------------|

e|--------19----20----22----20----19----------------|
B|--22----------------------------------22----20----|
G|-----21----21----21----21----21----21----21----21-|
D|--------------------------------------------------|
A|--------------------------------------------------|
E|--------------------------------------------------|

e|--------19----20----22----20----19----------------|
B|--22----------------------------------22----20----|
G|-----21----21----21----21----21----21----21----21-|
D|--------------------------------------------------|
A|--------------------------------------------------|
E|--------------------------------------------------|

e|--------19----20----22----20----19----------------|
B|--22----------------------------------22----20----|
G|-----21----21----21----21----21----21----21----21-|
D|--------------------------------------------------|
A|--------------------------------------------------|
E|--------------------------------------------------|


e|--------19----20----22----20----19-----------------|
B|--22----------------------------------22----20-----|
G|-----21----21----21----21----21----21----21----21--|
D|---------------------------------------------------|
A|---------------------------------------------------|
E|---------------------------------------------------|

For the outro effect, just slide your hand up and down the fretboard with your palm resting on the strings.

Back to Tablature