Survival (tablature)

MuseWiki, wiki for the band Muse
Jump to: navigation, search

Muse - Survival


Muse Tab

Name Survival

Length 4:17

Tuning Standard

Tempo 81 bpm

Timing ?


Guitar



E|---------------------------------------------------------| 
B|---------------------------------------------------------|
G|---------------------------------------------------------| x2
D|----------------3-4--3/1\3---3---------------------------| 
A|--------------5----------------5-----------5-------------|
E|-6~~~~/1----6--------------------6--2-1-2----------------|



E|----------------------------------------------------------------------|
B|-----------6-7-6/4\6--6--------------------6-7-6-7-8-7-8-9-10-11~~~~~~|
G|---------7--------------7-----------7----7----------------------------|
D|-------8------------------8------------8------------------------------|
A|----------------------------9-9-8-9-----------------------------------|
E|----------------------------------------------------------------------|

E|---------------------------------------------------------| Do this slides if they sound good to you.
B|---------------------------------------------------------| 
G|---------------------------------------------------------|
D|---------------------------------------------------------|
A|---------------------------------------------------------|
E|-16/1\16-16/1\16-----------------------11~~~~~~----------|



E|-----6-7-6-4-6-6------------------6-7-6-7-9-7-9-10-9-10-(11-12-13-14)-16~/1-| Here tremolo pick the notes under brackets ()
B|---8-------------8---------8----8-------------------------------------------| 
G|-8-----------------8----------8---------------------------------------------|
D|---------------------9-8-9--------------------------------------------------| 
A|----------------------------------------------------------------------------|
E|----------------------------------------------------------------------------|



E|---------------------------------------------------------| For a bass sound, pick this notes, i put the 2nd fret in brackets () because you
B|---------------------------------------------------------| can do the power chord if you want
G|---------------------------------------------------------|
D|---------------------------------------------------------| 
A|-------------4----------7--------------------(2)---------|
E|---4------------------------------5-----------0----------|
PM--------------------------------------------------------->



E|---11~~~~~~~---------------------------------------------| During matt falsetto you can turn down the volume of your guitar, pick this note, let
B|---------------------------------------------------------| it ring and turn up the volume slowly until the end of matt falsetto
G|---------------------------------------------------------|
D|---------------------------------------------------------| 
A|---------------------------------------------------------|
E|---------------------------------------------------------|



E|---------------------------------------------------------|
B|---------------------------------------------------------|
G|---------------------------------12----12-12----12-13~~~~|
D|-13~~~~-13-13-11-13-14--14-14-13----14-------14----------| 
A|---------------------------------------------------------|
E|---------------------------------------------------------|



E|---------------------------------------------------------|
B|-----------------------------------13-14-16-17-16-14-16--|
G|-13~~~~-13-13-11-13-14-14-14-13-14-----------------------|
D|---------------------------------------------------------| 
A|---------------------------------------------------------|
E|---------------------------------------------------------|



E|---------------------------------------------------------| Tremolo pick this notes
B|-16-17-18-19-20-21~/-------------------------------------------|
G|---------------------------------------------------------|
D|---------------------------------------------------------| 
A|---------------------------------------------------------|
E|---------------------------------------------------------|



E|---16--17--16--------------------------------------------| Here after the tremolo picked notes, you have to tremolo pick them again, there's no 
B|--------------21-----------------------------------------| really tab for this, just improve a bit.
G|---------------------------------------------------------|
D|---------------------------------------------------------| 
A|---------------------------------------------------------|
E|---------------------------------------------------------|


E|---------------------------------------------------------|
B|---------------------------------------------------------|
G|---------------------------------------------------------|
D|---------------------------------------------------------| 
A|---------------------------------------------------------|
E|----4----------4~~~~~~~~-------16~~~~~~~~~~~~/-----------|
PM---------->


legend:

vibrato = ~
slide down = /
slide up = \
hammer on = h
pull off = p
Palm Mute = PM
bend = b

Any question email me at zeluismarinho@hotmail.com
If there is any mistakes please email me.
It took me 2 hours to do this tab. 
Zefm


{{Backto | tablature}}

[[Category:Tablature]]