Supremacy (tablature)

MuseWiki, wiki for the band Muse
Jump to: navigation, search

MUSE Supremacy The 2nd Law

Tabbed by Nishe76

Guitare (6 strings version)


Sound FX: Heavy Fuzz

Tuning: DROP A (AADGBe)

Intro

e||--x-x-x-x---------------x-x-x-x---------------x-x-x-x-----------------x-x-x-x------------------|
B||--x-x-x-x---------------x-x-x-x---------------x-x-x-x-----------------x-x-x-x------------------|
G||--x-x-x-x----2-2-2-2----x-x-x-x----4-4-4-4----x-x-x-x----5-5-5-5------x-x-x-x----7-7-7-7-------|
D||--x-x-x-x---------------x-x-x-x---------------x-x-x-x-----------------x-x-x-x------------------|
A||--x-x-x-x----0-0-0-0----x-x-x-x----2-2-2-2----x-x-x-x----3-3-3-3------x-x-x-x----5-5-5-5-------|
A||--x-x-x-x---------------x-x-x-x---------------x-x-x-x-----------------x-x-x-x------------------|
  (On 1st fret)




e||--------------------------------------------------------------------|
B||--------------------------------------------------------------------|
G||--------------------------------------------------------------------| x2
D||--------------------------------------------------------------------|
A||--------------------------------------------------------------------|
A||--0-3-0-7-0-8-0-7-0-10h11h12-----0-3-0-7-0-8-0-7-0-10h11h12s15------|



e||---------------------------------|
B||---------------------------------|
G||---------------------------------| 
D||---------------------------------|
A||---------------------------------|
A||--0-3-0-7-0-8-0-7-0-10h11h12-0---|


e||----------------------------------------------------------|
B||----------------------------------------------------------|
G||--2-2-2-2----4-4-4-4----5-5-5-5----7-7-7-7----8-8-8-8-8-8-|
D||----------------------------------------------------------|
A||--0-0-0-0----2-2-2-2----3-3-3-3----5-5-5-5----6-6-6-6-6-6-|
A||----------------------------------------------------------|


Verse (you're boring) then

e||--------------------------------------------------------------------|
B||--------------------------------------------------------------------|
G||--------------------------------------------------------------------| 
D||--------------------------------------------------------------------|
A||--------------------------------------------------------------------|
A||--0-3-0-7-0-8-0-7-0-10h11h12-----0-3-0-7-0-8-0-7-0-10h11h12s15------|



e||---------------------------------|
B||---------------------------------|
G||---------------------------------| 
D||---------------------------------|
A||---------------------------------|
A||--0-3-0-7-0-8-0-7-0-10h11h12-0---|


e||----------------------------------------------------------|
B||----------------------------------------------------------|
G||--2-2-2-2----4-4-4-4----5-5-5-5----7-7-7-7----8-8-8-8-8-8-|
D||----------------------------------------------------------|
A||--0-0-0-0----2-2-2-2----3-3-3-3----5-5-5-5----6-6-6-6-6-6-|
A||----------------------------------------------------------|



e||----------------------------------------------------------------------------|
B||---5---------------5------------------------------------------5-3-----------|
G||-----5---------4-5---7-5-4h5---4--------------7-------------------5-4h5---5-| (Or for the end 5-4h5-2-5)
D||-------7-----7---------------7-----6------------7---------2-3-----------7---| x2
A||-----------7-------------------------7~-----------8---0-5-------------------|
A||----------------------------------------------------------------------------|


e||---------------------------------------------------------------------------------|
B||---------------------------------------------------------------------------------|
G||---10---10s12--10-9-9--9-9-9-9--9-10--10-10-10-10--10-12-14--14-13---------------| 
D||---------------------------------------------------------------------------------|
A||---------------------------------------------------------------------------------|
A||---------------------------------------------------------------------------------|



e||--x-x-x-x---------------x-x-x-x---------------x-x-x-x-----------------x-x-x-x------------------|
B||--x-x-x-x---------------x-x-x-x---------------x-x-x-x-----------------x-x-x-x------------------|
G||--x-x-x-x----2-2-2-2----x-x-x-x----4-4-4-4----x-x-x-x----5-5-5-5------x-x-x-x----7-7-7-7-------|
D||--x-x-x-x---------------x-x-x-x---------------x-x-x-x-----------------x-x-x-x------------------|
A||--x-x-x-x----0-0-0-0----x-x-x-x----2-2-2-2----x-x-x-x----3-3-3-3------x-x-x-x----5-5-5-5-------|
A||--x-x-x-x---------------x-x-x-x---------------x-x-x-x-----------------x-x-x-x------------------|
  (On 1st fret)

Solo Version 1

Part1
e||-------------------------------------------------------------------------------------------------|
B||-------------------------------------------------------------------------------------------------|
G||--12h13h14s17---------------12h13h14s17---------------12h13h14p13-12h13h14s17--------------------| 
D||---------------12h13h14s17---------------12h13h14s17---------------------------------------------|
A||------------------------------------------------------------------------------10h11h12s15--------|
A||-------------------------------------------------------------------------------------------------|


e||------------------------------------------------|
B||------------------------------------------------|
G||---------------12h13h14s17----------------------| 
D||--12h13h14s17-----------------12h13h14s17-------|
A||------------------------------------------------|
A||------------------------------------------------|

Part2
e||-------------------------------------------------------------------------------------------------------------|
B||-------------------------------------------------------------------------------------------------------------|
G||--12h13h14s17---------------12h13h14s17---------------12h13h14s17-12h13h14p13-12h13h14s17--------------------| 
D||---------------12h13h14s17---------------12h13h14s17---------------------------------------------------------|
A||------------------------------------------------------------------------------------------10h11h12s15--------|
A||-------------------------------------------------------------------------------------------------------------|


e||------------------------------------------------------------------------|
B||------------------------------------------------------------------------|
G||---------------12h13h14s17-14h17p14h17p14h17p14h17p14h17~---------------| 
D||--12h13h14s17-----------------------------------------------------------|
A||------------------------------------------------------------------------|
A||------------------------------------------------------------------------|

Solo Version 2

Part1
e||----------------------------------------------------------15----15-16-17-16-15-16-17-20-----|
B||------------13---------------------------13-----15-16-17-------------------------------------|
G||--12-13-14---------------12----12-13-14-----------------------------------------------------| 
D||----------------12-13-14---------------------------------------------------------------------|
A||---------------------------------------------------------------------------------------------|
A||---------------------------------------------------------------------------------------------|


e||----------------------------------------------------------15----15-16-17-20---------|
B||-------------13---------------------------13----15-16-17---------------------------|
G||---12-13-14---------------12----12-13-14-------------------------------------------| 
D||-----------------12-13-14-----------------------------------------------------------|
A||-------------------------------------------------------------------------------------|
A||-------------------------------------------------------------------------------------|

Part2
e||----------------------------------------------------------15----15-16-17-16-15-16-17-20-----|
B||------------13---------------------------13-----15-16-17-------------------------------------|
G||--12-13-14---------------12----12-13-14-----------------------------------------------------| 
D||----------------12-13-14---------------------------------------------------------------------|
A||---------------------------------------------------------------------------------------------|
A||---------------------------------------------------------------------------------------------|

e||----------------------------------------------------------------------------|
B||-------------13------------------8-9-10-13-(10-13)*-------------------------|
G||---12-13-14---------------12-------------------------------------------------| 
D||-----------------12-13-14-----------------------------------------------------|
A||-------------------------------------------------------------------------------|
A||-------------------------------------------------------------------------------|
*Repeated as many times as you need

Outro


e||--------------------------------------------------------------------|
B||--------------------------------------------------------------------|
G||--------------------------------------------------------------------| 
D||--------------------------------------------------------------------|
A||--------------------------------------------------------------------|
A||--0-3-0-7-0-8-0-7-0-10h11h12-----0-3-0-7-0-8-0-7-0-10h11h12s15------|



e||---------------------------------|
B||---------------------------------|
G||---------------------------------| 
D||---------------------------------|
A||---------------------------------|
A||--0-3-0-7-0-8-0-7-0-10h11h12-0---|



e||----------------------------------------------------------|
B||----------------------------------------------------------|
G||--2-2-2-2----4-4-4-4----5-5-5-5----7-7-7-7----8-8-8-8-8-8-|
D||----------------------------------------------------------|
A||--0-0-0-0----2-2-2-2----3-3-3-3----5-5-5-5----6-6-6-6-6-6-|
A||----------------------------------------------------------|

Ends on (clean overdrive with a little delay or with a vibrato)

e||------------0------------------------|
B||----------1--------------------------|
G||--------1----------------------------| 
D||------2------------------------------|
A||-0-----------------------------------|
A||-------------------------------------|



Go back to tablature