Stockholm Syndrome (tablature)

MuseWiki, wiki for the band Muse
Jump to: navigation, search

Guitar


Take A Bow Prelude:

(Tapping with soft Whammy Harmonizer +1Octave)
e|-------------------------------------|-----------------------------------------|
B|-------------------------------------|-----------------------------------------|
G|-------------------------------------|-----------------------------------------|
D|-------------------------------------|-----------------------------------------|
A|-12t5t9t5t12t5t9t5t12t5t9t5t12t5t9t5-|-12t5t10t5t12t5t10t5t12t5t10t5t12t5t10t5-|
D|-------------------------------------|-----------------------------------------|

e|-------------------------------------|-----------------------------------------|
B|-------------------------------------|-----------------------------------------|
G|-------------------------------------|-----------------------------------------|
D|-------------------------------------|-----------------------------------------|
A|-12t5t9t5t12t5t9t5t12t5t9t5t12t5t9t5-|-12t5t10t5t12t5t10t5t12t5t10t5t12t5t10t5-|
D|-------------------------------------|-----------------------------------------|

e|---------------------------------------|---------------------------------------|
B|---------------------------------------|---------------------------------------|
G|---------------------------------------|---------------------------------------|
D|---------------------------------------|---------------------------------------|
A|-12t5t9t5t12t5t9t5t12t5t10t5t12t5t10t5-|-12t5t9t5t12t5t9t5t12t5t10t5t12t5t10t5-|
D|---------------------------------------|---------------------------------------|

e|-----------------------------------------|-------------------------------------|
B|-----------------------------------------|-------------------------------------|
G|-----------------------------------------|-------------------------------------|
D|-12t7t10t7t12t7t10t7t12t7t10t7t12t7t10t7-|-12t6t9t6t12t6t9t6t12t6t9t6t12t6t9t6-|
A|-----------------------------------------|-------------------------------------|
D|-----------------------------------------|-------------------------------------|

e|-------------------------------------|-------------------------------------|
B|-------------------------------------|-------------------------------------|
G|-------------------------------------|-------------------------------------|
D|-12t5t8t5t12t5t8t5t12t5t8t5t12t5t8t5-|-12t4t7t4t12t4t7t4t12t4t7t4t12t4t7t4-|
A|-------------------------------------|-------------------------------------|
D|-------------------------------------|-------------------------------------|

e|-----------------------------------------|-------------------------------------|
B|-----------------------------------------|-------------------------------------|
G|-----------------------------------------|-------------------------------------|
D|-12t7t10t7t12t7t10t7t12t7t10t7t12t7t10t7-|-12t6t9t6t12t6t9t6t12t6t9t6t12t6t9t6-|
A|-----------------------------------------|-------------------------------------|
D|-----------------------------------------|-------------------------------------|

e|-------------------------------------|-------------------------------------|
B|-------------------------------------|-------------------------------------|
G|-------------------------------------|-------------------------------------|
D|-12t5t8t5t12t5t8t5t12t5t8t5t12t5t8t5-|-------------------------------------|
A|-------------------------------------|-12t5t9t5t12t5t9t5t12t5t9t5t12t5t9t5-|
D|-------------------------------------|-------------------------------------|

Intro:

e|-----------------------|-----------------------|-----------------------|-----------------------|
B|-----------------------|-----------------------|-----------------------|-----------------------|
G|-----------------------|-----------------------|-----------------------|-----------------------|
D|-----------------------|-----------------------|-----------------------|-----------------------|
A|-----------------------|-----------------------|-----------------------|-----------------------|
D|-12-0-13-0-12-0-10h12--|-0-0-13-0-12-0-10h12---|-0-0-13-0-12-0-10h12---|-0-0-13-0-16h17p16-0---|

e|-----------------------|-----------------------|---------------------|---------------------------|
B|-----------------------|-----------------------|---------------------|---------------------------|
G|-----------------------|-----------------------|---------------------|---------------------------|
D|-----------------------|-----------------------|---------------------|---------------------------|
A|-----------------------|-----------------------|---------------------|---------------------------|
D|-12-0-13-0-12-0-10h12--|-0-0-13-0-12-0-10h12---|--0-0-[3]-[3]-[3]-0--|-[3]-[3]-[3]-0-[3]-[3]-[3]-|

e|-----------------------|-----------------------|-----------------------|-----------------------|
B|-----------------------|-----------------------|-----------------------|-----------------------|
G|-----------------------|-----------------------|-----------------------|-----------------------|
D|-----------------------|-----------------------|-----------------------|-----------------------|
A|-----------------------|-----------------------|-----------------------|-----------------------|
D|-12-0-13-0-12-0-10h12--|-0-0-13-0-12-0-10h12---|-0-0-13-0-12-0-10h12---|-0-0-13-0-16h17p16-0---|

e|-----------------------|-----------------------|-----------------------|-----------------------|
B|-----------------------|-----------------------|-----------------------|-----------------------|
G|-----------------------|-----------------------|-----------------------|-----------------------|
D|-----------------------|-----------------------|-----------------------|-----------------------|
A|-----------------------|-----------------------|-----------------------|-----------------------|
D|-12-0-13-0-12-0-10h12--|-0-0-13-0-12-0-10h12---|-0-0-13-0-12-0-10h12---|-0-0-13-0-16h17p16-0---|

e|-----------------------|-----------------------|-----------------------|-----------------------|
B|-----------------------|-----------------------|-----------------------|-----------------------|
G|-----------------------|-----------------------|-----------------------|-----------------------|
D|-----------------------|-----------------------|-----------------------|-----------------------|
A|-----------------------|-----------------------|-----------------------|-----------------------|
D|-12-0-13-0-12-0-10h12--|-0-0-13-0-12-0-10h12---|-0-0-13-0-12-0-10h12---|-0-0-13-0-16h17p16-0---|

e|-----------------------|-----------------------|-----------------------|-----------------------|
B|-----------------------|-----------------------|-----------------------|-----------------------|
G|-----------------------|-----------------------|-----------------------|-----------------------|
D|-----------------------|-----------------------|-----------------------|-----------------------|
A|-----------------------|-----------------------|-----------------------|-----------------------|
D|-12-0-13-0-12-0-10h12--|-0-0-13-0-12-0-10h12---|-0-0-13-0-12-0-10h12---|-0-0-13-0-16h17p16-0---|


Verse:
(Cleaner, perfect intonation required else it sounds pretty poor.)

e|-----------------------|-----------------------|-----------------------|-----------------------|
B|-6-(x16)---------------|-5-(x16)---------------|-3-(x16)---------------|-3-(x16)---------------|
G|-7---------------------|-5---------------------|-4---------------------|-3---------------------|
D|-x---------------------|-x---------------------|-x---------------------|-x---------------------|
A|-5---------------------|-3---------------------|-2---------------------|-1---------------------|
D|-----------------------|-----------------------|-----------------------|-----------------------|

e|-----------------------|-----------------------|-----------------------|-----------------------|
B|-6-(x16)---------------|-5-(x16)---------------|-5-(x16)---------------|-6-(x16)---------------|
G|-7---------------------|-6---------------------|-5---------------------|-7---------------------|
D|-x---------------------|-x---------------------|-x---------------------|-x---------------------|
A|-5---------------------|-4---------------------|-3---------------------|-5---------------------|
D|-----------------------|-----------------------|-----------------------|-----------------------|

e|-----------------------|-----------------------|-----------------------|-----------------------|
B|-11-(x16)--------------|-10-(x16)--------------|-8-(x16)---------------|-8-(x16)---------------|
G|-12--------------------|-10--------------------|-9---------------------|-8---------------------|
D|-x---------------------|-x---------------------|-x---------------------|-x---------------------|
A|-10--------------------|-8---------------------|-7---------------------|-6---------------------|
D|-----------------------|-----------------------|-----------------------|-----------------------|

e|-----------------------|-----------------------|-----------------------|-----------------------|
B|-8-(x16)---------------|-8-(x16)---------------|-10-(x16)--------------|-10-(x16)--------------|
G|-9---------------------|-9---------------------|-9---------------------|-9---------------------|
D|-x---------------------|-x---------------------|-x---------------------|-x---------------------|
A|-7---------------------|-7---------------------|-7---------------------|-7---------------------|
D|-----------------------|-----------------------|-----------------------|-----------------------|

e|-----------------------|-----------------------|-----------------------|-----------------------|
B|-6-(x16)---------------|-5-(x16)---------------|-3-(x16)---------------|-3-(x16)---------------|
G|-7---------------------|-5---------------------|-4---------------------|-3---------------------|
D|-x---------------------|-x---------------------|-x---------------------|-x---------------------|
A|-5---------------------|-3---------------------|-2---------------------|-1---------------------|
D|-----------------------|-----------------------|-----------------------|-----------------------|

e|-----------------------|-----------------------|-----------------------|-----------------------|
B|-6-(x16)---------------|-5-(x16)---------------|-5-(x16)---------------|-6-(x16)---------------|
G|-7---------------------|-6---------------------|-5---------------------|-7---------------------|
D|-x---------------------|-x---------------------|-x---------------------|-x---------------------|
A|-5---------------------|-4---------------------|-3---------------------|-5---------------------|
D|-----------------------|-----------------------|-----------------------|-----------------------|

e|-----------------------|-----------------------|-----------------------|-----------------------|
B|-11-(x16)--------------|-10-(x16)--------------|-8-(x16)---------------|-8-(x16)---------------|
G|-12--------------------|-10--------------------|-9---------------------|-8---------------------|
D|-x---------------------|-x---------------------|-x---------------------|-x---------------------|
A|-10--------------------|-8---------------------|-7---------------------|-6---------------------|
D|-----------------------|-----------------------|-----------------------|-----------------------|

e|-----------------------|-----------------------|-----------------------|-----------------------|
B|-8-(x16)---------------|-8-(x16)---------------|-10-(x16)--------------|-10-(x8)---------------|
G|-9---------------------|-9---------------------|-9---------------------|-9---------------------|
D|-x---------------------|-x---------------------|-x---------------------|-x---(finish bar with--|
A|-7---------------------|-7---------------------|-7---------------------|-7-----the loud bit----|
D|-----------------------|-----------------------|-----------------------|-----------below)------|


Chorus:

e|--------------------------|
B|--------------------------|
G|--------------------------|
D|-x-x-x-x-5------4---------|
A|-x-x-x-x-5------4---------|
e|-x-x-x-x-5------4---------|

e|-----------------------|-----------------------|-----------------------|-----------------------|
B|-----------------------|-----------------------|-----------------------|-----------------------|
G|-----------------------|-----------------------|-----------------------|-----------------------|
D|--3-(x8)---------------|--3-(x8)---------------|--3-(x8)---------------|--3-(x8)---------------|
A|--3--------------------|--3--------------------|--3--------------------|--3--------------------|
D|--3--------------------|--3--------------------|--3--------------------|--3--------------------|

e|-----------------------|-----------------------|-----------------------|-----------------------|
B|-----------------------|-----------------------|-----------------------|-----------------------|
G|-----------------------|-----------------------|-----------------------|-----------------------|
D|--3-(x8)---------------|--3-(x8)---------------|--2-(x8)---------------|--2-(x8)---------------|
A|--3--------------------|--3--------------------|--2--------------------|--2--------------------|
D|--3--------------------|--3--------------------|--2--------------------|--2--------------------|

e|-----------------------|-----------------------|-----------------------|-----------------------|
B|-----------------------|-----------------------|-----------------------|-----------------------|
G|-----------------------|-----------------------|-----------------------|-----------------------|
D|--0-(x8)---------------|--0-(x8)---------------|--0-(x8)---------------|--0-(x8)---------------|
A|--0--------------------|--0--------------------|--0--------------------|--0--------------------|
D|--0--------------------|--0--------------------|--0--------------------|--0--------------------|

e|-----------------------|-----------------------|-----------------------|-----------------------|
B|-----------------------|-----------------------|-----------------------|-----------------------|
G|-----------------------|-----------------------|-----------------------|-----------------------|
D|--3-(x8)---------------|--3-(x8)---------------|--2-(x8)---------------|--2-(x8)---------------|
A|--3--------------------|--3--------------------|--2--------------------|--2--------------------|
D|--3--------------------|--3--------------------|--2--------------------|--2--------------------|

e|-----------------------|-----------------------|-----------------------|-----------------------|
B|-----------------------|-----------------------|-----------------------|-----------------------|
G|-----------------------|-----------------------|-----------------------|-----------------------|
D|--0-(x8)---------------|--0-(x8)---------------|--8-(x8)---------------|--8-(x8)---------------|
A|--0--------------------|--0--------------------|--8--------------------|--8--------------------|
D|--0--------------------|--0--------------------|--8--------------------|--8--------------------|

e|-----------------------|-----------------------|
B|-----------------------|-----------------------|
G|-----------------------|-----------------------|
D|--3-(x8)----6-(x8)-----|--7-(x8)-10-(x4)-11-12-|
A|--3---------6----------|--7------10------11-12-|
D|--3---------6----------|--7------10------11-12-|


Refrain:

e|-----------------------|-----------------------|-------------------------|-------------|
B|-----------------------|-----------------------|-------------------------|-------------|
G|-----------------------|-----------------------|-------------------------|-------------|
D|-----------------------|-----------------------|-------------------------|-------------|
A|-----------------------|-----------------------|-------------------------|-------------|
D|-12-0-13-0-12-0-10h12--|-0-0-13-0-12-0-10h12-0-|-0-[3]-0-[3]-0-[3]-0-[3]-|-0-0-[3]-----| <-- [all
											     harmonics]

Verse:

e|-----------------------|-----------------------|-----------------------|-----------------------|
B|-6-(x16)---------------|-5-(x16)---------------|-3-(x16)---------------|-3-(x16)---------------|
G|-7---------------------|-5---------------------|-4---------------------|-3---------------------|
D|-x---------------------|-x---------------------|-x---------------------|-x---------------------|
A|-5---------------------|-3---------------------|-2---------------------|-1---------------------|
D|-----------------------|-----------------------|-----------------------|-----------------------|

e|-----------------------|-----------------------|-----------------------|-----------------------|
B|-6-(x16)---------------|-5-(x16)---------------|-5-(x16)---------------|-6-(x16)---------------|
G|-7---------------------|-6---------------------|-5---------------------|-7---------------------|
D|-x---------------------|-x---------------------|-x---------------------|-x---------------------|
A|-5---------------------|-4---------------------|-3---------------------|-5---------------------|
D|-----------------------|-----------------------|-----------------------|-----------------------|

e|-----------------------|-----------------------|-----------------------|-----------------------|
B|-11-(x16)--------------|-10-(x16)--------------|-8-(x16)---------------|-8-(x16)---------------|
G|-12--------------------|-10--------------------|-9---------------------|-8---------------------|
D|-x---------------------|-x---------------------|-x---------------------|-x---------------------|
A|-10--------------------|-8---------------------|-7---------------------|-6---------------------|
D|-----------------------|-----------------------|-----------------------|-----------------------|

e|-----------------------|-----------------------|-----------------------|-----------------------|
B|-8-(x16)---------------|-8-(x16)---------------|-10-(x16)--------------|-10-(x6)---------------|
G|-9---------------------|-9---------------------|-9---------------------|-9---------------------|
D|-x---------------------|-x---------------------|-x---------------------|-x---(finish bar with--|
A|-7---------------------|-7---------------------|-7---------------------|-7----the loud bit)----|
D|-----------------------|-----------------------|-----------------------|----------below)-------|


Chorus:

e|--------------------------|
B|--------------------------|
G|--------------------------|
D|-x-x-x-x-5------4---------|
A|-x-x-x-x-5------4---------|
e|-x-x-x-x-5------4---------|

e|-----------------------|-----------------------|-----------------------|-----------------------|
B|-----------------------|-----------------------|-----------------------|-----------------------|
G|-----------------------|-----------------------|-----------------------|-----------------------|
D|--3-(x8)---------------|--3-(x8)---------------|--3-(x8)---------------|--3-(x8)---------------|
A|--3--------------------|--3--------------------|--3--------------------|--3--------------------|
D|--3--------------------|--3--------------------|--3--------------------|--3--------------------|

e|-----------------------|-----------------------|-----------------------|-----------------------|
B|-----------------------|-----------------------|-----------------------|-----------------------|
G|-----------------------|-----------------------|-----------------------|-----------------------|
D|--3-(x8)---------------|--3-(x8)---------------|--2-(x8)---------------|--2-(x8)---------------|
A|--3--------------------|--3--------------------|--2--------------------|--2--------------------|
D|--3--------------------|--3--------------------|--2--------------------|--2--------------------|

e|-----------------------|-----------------------|-----------------------|-----------------------|
B|-----------------------|-----------------------|-----------------------|-----------------------|
G|-----------------------|-----------------------|-----------------------|-----------------------|
D|--0-(x8)---------------|--0-(x8)---------------|--0-(x8)---------------|--0-(x8)---------------|
A|--0--------------------|--0--------------------|--0--------------------|--0--------------------|
D|--0--------------------|--0--------------------|--0--------------------|--0--------------------|

e|-----------------------|-----------------------|-----------------------|-----------------------|
B|-----------------------|-----------------------|-----------------------|-----------------------|
G|-----------------------|-----------------------|-----------------------|-----------------------|
D|--3-(x8)---------------|--3-(x8)---------------|--2-(x8)---------------|--2-(x8)---------------|
A|--3--------------------|--3--------------------|--2--------------------|--2--------------------|
D|--3--------------------|--3--------------------|--2--------------------|--2--------------------|

e|-----------------------|-----------------------|-----------------------|-----------------------|
B|-----------------------|-----------------------|-----------------------|-----------------------|
G|-----------------------|-----------------------|-----------------------|-----------------------|
D|--0-(x8)---------------|--0-(x8)---------------|--8-(x8)---------------|--8-(x8)---------------|
A|--0--------------------|--0--------------------|--8--------------------|--8--------------------|
D|--0--------------------|--0--------------------|--8--------------------|--8--------------------|

e|-----------------------|-----------------------|
B|-----------------------|-----------------------|
G|-----------------------|-----------------------|
D|--3-(x8)----6-(x8)-----|--7-(x8)-10-(x4)-11-12-|
A|--3---------6----------|--7------10------11-12-|
D|--3---------6----------|--7------10------11-12-|

e|-----------------------|-----------------------|-----------------------|-----------------------|
B|-----------------------|-----------------------|-----------------------|-----------------------|
G|-----------------------|-----------------------|-----------------------|-----------------------|
D|-----------------------|-----------------------|-----------------------|-----------------------|
A|-----------------------|-----------------------|-----------------------|-----------------------|
D|-12-0-13-0-12-0-10h12--|-0-0-13-0-12-0-10h12---|-0-0-13-0-12-0-10h12---|-0-0-13-0-16h17p16-0---|

e|-----------------------|-----------------------|------------------|---------------------------|
B|-----------------------|-----------------------|------------------|---------------------------|
G|-----------------------|-----------------------|------------------|---------------------------|
D|-----------------------|-----------------------|------------------|---------------------------|
A|-----------------------|-----------------------|------------------|---------------------------|
D|-12-0-13-0-12-0-10h12--|-0-0-13-0-12-0-10h12---|--0-[3]-[3]-[3]-0-|-[3]-[3]-[3]-0-[3]-[3]-[3]-|


Solo:

e|-----------------------|-----------------------|-----------------------|-----------------------| Wah (Closed)
B|-----------------------|-----------------------|-----------------------|-----------------------|         |
G|-----------------------|-----------------------|-----------------------|-----------------------|         |
D|-----------------------|-----------------------|-----------------------|-----------------------|         |
A|-----------------------|-----------------------|-----------------------|-----------------------|         |
D|-12-0-13-0-12-0-10h12--|-0-0-13-0-12-0-10h12---|-0-0-13-0-12-0-10h12---|-0-0-13-0-12-0-10h12---|         |
                                                                                                           |
e|-----------------------|-----------------------|-----------------------|-----------------------|         |
B|-----------------------|-----------------------|-----------------------|-----------------------|         |
G|-----------------------|-----------------------|-----------------------|-----------------------|         |
D|-----------------------|-----------------------|-----------------------|-----------------------|         |
A|-----------------------|-----------------------|-----------------------|-----------------------|         |
D|-12-0-13-0-12-0-10h12--|-0-0-13-0-12-0-10h12---|-0-0-13-0-12-0-10h12---|-0-0-13-0-12-0-10h12---|         |
                                                                                                           |
e|-----------------------|-----------------------|-----------------------|-----------------------|         |
B|-----------------------|-----------------------|-----------------------|-----------------------|         |
G|-----------------------|-----------------------|-----------------------|-----------------------|         |
D|-----------------------|-----------------------|-----------------------|-----------------------|         |
A|-----------------------|-----------------------|-----------------------|-----------------------|         |
D|-12-0-13-0-12-0-10h12--|-0-0-13-0-12-0-10h12---|-0-0-13-0-12-0-10h12---|-0-0-13-0-12-0-10h12---|         |
                                                                                                           |
e|-----------------------|-----------------------|-----------------------|-----------------------|         |
B|-----------------------|-----------------------|-----------------------|-----------------------|         |
G|-----------------------|-----------------------|-----------------------|-----------------------|         |
D|-----------------------|-----------------------|-----------------------|-----------------------|         |
A|-----------------------|-----------------------|-----------------------|-----------------------|         |
D|-12-0-13-0-12-0-10h12--|-0-0-13-0-12-0-10h12---|-0-0-13-0-12-0-10h12---|-0-0-13-0-12-0-10h12---|         |
                                                                                                        (open)
e|---------------------------------------------|---------------------------------------------|             |       
B|---------------------------------------------|---------------------------------------------|             |       
G|---------------------------------------------|---------------------------------------------|             |       
D|---------------------------------------------|---------------------------------------------|             |       
A|---------------------------------------------|---------------------------------------------|             |       
D|-20-20-17-17-0-0-20-20-17-17-0-0-20-20-17-17-|-19-19-15-15-0-0-19-19-15-15-0-0-19-19-15-15-|             |       
                                                                                                           |
e|---------------------------------------------|---------------------------------------------|             |       
B|---------------------------------------------|---------------------------------------------|             |       
G|---------------------------------------------|---------------------------------------------|             |       
D|---------------------------------------------|---------------------------------------------|             |       
A|---------------------------------------------|---------------------------------------------|             |
D|-17-17-14-14-0-0-17-17-14-14-0-0-17-17-14-14-|-17-17-13-13-0-0-17-17-13-13-0-0-17-17-13-13-|         (Closed)       

e|-----------------------|-----------------------|-----------------------|-----------------------|           
B|-----------------------|-----------------------|-----------------------|-----------------------|
G|-----------------------|-----------------------|-----------------------|-----------------------|
D|-----------------------|-----------------------|-----------------------|-----------------------|
A|--12-0-13-0-12-10h12---|--12-0-13-0-12-10h12---|--12-0-13-0-12-10h12---|--12-0-13-0-12-10h12---|
D|-----------------------|-----------------------|-----------------------|-----------------------|

e|-----------------------|-----------------------|
B|-----------------------|-----------------------|
G|-----------------------|-----------------------|
D|--12-0-13-0-12-10h12---|--12-0-13-0-12-10h12---|
A|-----------------------|-----------------------|
D|-----------------------|-----------------------|


Chorus:

e|--------------------------|
B|--------------------------|
G|--------------------------|
D|-x-x-x-x-5------4---------|
A|-x-x-x-x-5------4---------|
e|-x-x-x-x-5------4---------|

e|-----------------------|-----------------------|-----------------------|-----------------------|
B|-----------------------|-----------------------|-----------------------|-----------------------|
G|-----------------------|-----------------------|-----------------------|-----------------------|
D|--3-(x8)---------------|--3-(x8)---------------|--2-(x8)---------------|--2-(x8)---------------|
A|--3--------------------|--3--------------------|--2--------------------|--2--------------------|
D|--3--------------------|--3--------------------|--2--------------------|--2--------------------|

e|-----------------------|-----------------------|-----------------------|-----------------------|
B|-----------------------|-----------------------|-----------------------|-----------------------|
G|-----------------------|-----------------------|-----------------------|-----------------------|
D|--0-(x8)---------------|--0-(x8)---------------|--0-(x8)---------------|--0-(x8)---------------|
A|--0--------------------|--0--------------------|--0--------------------|--0--------------------|
D|--0--------------------|--0--------------------|--0--------------------|--0--------------------|

e|-----------------------|-----------------------|-----------------------|-----------------------|
B|-----------------------|-----------------------|-----------------------|-----------------------|
G|-----------------------|-----------------------|-----------------------|-----------------------|
D|--3-(x8)---------------|--3-(x8)---------------|--2-(x8)---------------|--2-(x8)---------------|
A|--3--------------------|--3--------------------|--2--------------------|--2--------------------|
D|--3--------------------|--3--------------------|--2--------------------|--2--------------------|

e|-----------------------|-----------------------|-----------------------|-----------------------|
B|-----------------------|-----------------------|-----------------------|-----------------------|
G|-----------------------|-----------------------|-----------------------|-----------------------|
D|--0-(x8)---------------|--0-(x8)---------------|--8-(x8)---------------|--8-(x8)---------------|
A|--0--------------------|--0--------------------|--8--------------------|--8--------------------|
D|--0--------------------|--0--------------------|--8--------------------|--8--------------------|

e|-----------------------|-----------------------|
B|-----------------------|-----------------------|
G|-----------------------|-----------------------|
D|--3-(x8)----6-(x8)-----|--7-(x8)-10-(x4)-11-12-|
A|--3---------6----------|--7------10------11-12-|
D|--3---------6----------|--7------10------11-12-|

e|-----------------------|-----------------------|
B|-----------------------|-----------------------|
G|-----------------------|-----------------------|
D|--3-(x8)----6-(x8)-----|--7-(x8)-10-(x4)-11-12-|
A|--3---------6----------|--7------10------11-12-|
D|--3---------6----------|--7------10------11-12-|


Outro:

e|-----------------------|-----------------------|-----------------------|-----------------------|
B|-----------------------|-----------------------|-----------------------|-----------------------|
G|-----------------------|-----------------------|-----------------------|-----------------------|
D|--0-0-13-0-12-0-10-12--|--0-0-13-0-12-0-10-12--|--0-0-13-0-12-0-10-12--|--0-0-13-0-12-0-12\12\-|
A|--0-0-13-0-12-0-10-12--|--0-0-13-0-12-0-10-12--|--0-0-13-0-12-0-10-12--|--0-0-13-0-12-0-12\12\-|
D|--0-0-13-0-12-0-10-12--|--0-0-13-0-12-0-10-12--|--0-0-13-0-12-0-10-12--|--0-0-13-0-12-0-12\12\-|

e|-----------------------|-----------------------|-----------------------|-----------------------|
B|-----------------------|-----------------------|-----------------------|-----------------------|
G|-----------------------|-----------------------|-----------------------|-----------------------|
D|--0-0-13-0-12-0-10-12--|--0-0-13-0-12-0-10-12--|--0-0-13-0-12-0-10-12--|--0-0-13-0-12-0-10-12--|
A|--0-0-13-0-12-0-10-12--|--0-0-13-0-12-0-10-12--|--0-0-13-0-12-0-10-12--|--0-0-13-0-12-0-10-12--|
D|--0-0-13-0-12-0-10-12--|--0-0-13-0-12-0-10-12--|--0-0-13-0-12-0-10-12--|--0-0-13-0-12-0-10-12--|

e|-----------------------|
B|-----------------------|
G|-----------------------|
D|-- 0 --> --------------|
A|-- 0 --> --------------|
D|-- 0 --> --------------|