Starlight (tablature)

MuseWiki, wiki for the band Muse
Jump to: navigation, search

Guitar

e--11----11-12----12-11--11---11-12----12-11----| B----12-------14-------14--12------12--------14-| G------11-------13-----------13------13---------| D-----------------------------------------------| A-----------------------------------------------| E-----------------------------------------------|

after second piano part Part 2

e--7---7---7---7---7---7--7---7----7---7---7----| B----7---7---5---5---5--4---4---4/5--5---5------| G-----------------------------------------------| D-----------------------------------------------| A-----------------------------------------------| E-----------------------------------------------|

Pre-chorus

e-----------------------------------------------| B-----------------------------------------------| G--6-6-66x----------8-8-88x---------------------| D--6-6-66x-4-4-4-44-8-8-88x-6-6-6-66-7-7-77x----| A--4-4-44x-4-4-4-44-6-6-66x-6-6-6-66-7-7-77x----| E----------2-2-2-22---------4-4-4-44-5-5-55x----|


e-----------------------------------------------| B-----------------------------------------------| G-------------------8-8-8-88--------------------| D--2-2-2-22-7-7-77x-8-8-8-88--------------------| A--2-2-2-22-7-7-77x-6-6-6-66--------------------| E--0-0-0-00-5-5-55x-----------------------------|

Chorus

e--7-------7-------6-----6----7----7------------| B----9---9---9---9---9-----8----9----9----------| G------8-------8-------8-----8----9----9--------| D-----------------------------------------------| A-----------------------------------------------| E-----------------------------------------------|

(I'm not sure how accurate this is, the delay didn't help)

e------7----------------------------------------| B----7---7---5---5------------------------------| G--11------9---9--------------------------------| D-----------------------------------------------| A-----------------------------------------------| E-----------------------------------------------|

 repeat 3 times

(last time through chorus)

e--7-------7-------6-----6----7----7----9----9-----| B----9---9---9---9---9-----8----9----9---11---11---| G------8-------8-------8-----8----9----9---11---11-| D--------------------------------------------------| A--------------------------------------------------| E--------------------------------------------------|

(on the last 2 arpeggios 2nd guitar starts)

e-----------------------------------------------| B------------------(bend this note slowly to 8)-| G-----------------6-6-6-6-6-6-8-----------------| D-----------------------------------------------| A--7-7-7-7-7-7-7-7------------------------------| E-----------------------------------------------|

Verse 2 - repeat playing part 1 once and part two straight after.

pre chorus

e-----------------------------------------------| B-------------------8-8-88x---------------------| G--6-6-66x----------8-8-88x---------------------| D--6-6-66x-4-4-4-44-8-8-88x-9-6------7-7-77x----| A--4-4-44x-4-4-4-44-6-6-66x-----6--6-7-7-77x----| E----------2-2-2-22------------------5-5-55x----|


e-----------------------------------------------| B-------------------8-8-8-88--------------------| G-------------------8-8-8-88--------------------| D--2-2-2-22-7-7-77x-8-8-8-88--------------------| A--2-2-2-22-7-7-77x-6-6-6-66--------------------| E--0-0-0-00-5-5-55x-----------------------------|

Chorus

e-------------------------------------------| B-------------------------------------------| G----------8-8-8-8-9-9-9-9------------------| D--6-6-6-6-8-8-8-8-9-9-9-9-9-9-9-9----------| A--6-6-6-6-6-6-6-6-7-7-7-7-9-9-9-9----------| E--4-4-4-4-----------------7-7-7-7----------|

 repeat x 2


e---------------------------------------------| B---------------------------------------------| G-----------88888888-99999999-----------------| D--66666666-88888888-99999999-99999999--------| A--66666666-66666666-77777777-99999999--------| E--44444444-------------------77777777--------|


e----------------------------------------------| B----------------------------------------------| G-----------88888888-99999999-1111111111111111-| D--66666666-88888888-99999999-1111111111111111-| A--66666666-66666666-77777777-9-9-9-9-9-9-9-9--| E--44444444------------------------------------|

Bass riff: (distorted bass)

Bass intro

G|---------|--------------------------------------------------|
D|---------|----------------------------------------------13--|
A|-14--x32-|-14-14-14-14-14-14-14-16-16-16-16-16-16-14-16-----|
E|---------|--------------------------------------------------|

G|-13-13-13-13-13-13-13---------------------------------------|
D|----------------------14-14-14-14-14-14-13-14-16------------|
A|------------------------------------------------------------|
E|------------------------------------------------------------|

Alternative Bass Tab (By MuseIsAbsolution) (I thought this sounded more correct. Maybe my bass was just tuned weirdly, but if the original bass tab posted here doesn't work for you, try this one)

Starlight (My Version) Part A

G|---------|--------------------------------------------------|
D|---------|--------------------------------------------------|
A|---------|--------------------------------------------------|
E|-7--x32--|-7-7-7-7-7-7-7-9-9-9-9-9-9-7-9-11-----------------|

G|------------------------------------------------------------|
D|------------------------------------------------------------|
A|-11-11-11-11-11-11-11-7-7-7-7-7-7-6-7-9---------------------|
E|------------------------------------------------------------|

Part B

G|-----------------------------------------------------------------|
D|-----------------------------------------------------------------|
A|-4-4-4-4-4-4-4-------------------6-6-6-6-6-6-6-------------------|
E|---------------2-2-2-2-2-2-2-2-2---------------4-4-4-4-4-4-4-4-4-|

G|-----------------------------------------------------------------|
D|-----------------------------------------------------------------|
A|-0-0-0-0-0-0-0-------------------0-0-0-0-0-0-0-6-6-6-6-6-6-6-6-6-|
E|---------------0-0-0-0-0-0-0-0-0---------------------------------|

Part C

G|------------------------------------------------------------|
D|------------------------------------------------------------|
A|-----------------6-6-6-6-6-6-6-6-7-7-7-7-7-7-7-7-2-2-2-2-2-2|
E|-4-4-4-4-4-4-4-4--------------------------------------------|

G|------------------------------------------------------------|
D|------------------------------------------------------------|
A|-1-1--------------------------------------------------------|
E|------------------------------------------------------------|

Part D

G|------------------------------------------------------------|
D|------------------------------------------------------------|
A|-----------------6-6-6-6-6-6-6-6-7-7-7-7-7-7-7-7-9-9-9-9-9-9|
E|-4-4-4-4-4-4-4-4--------------------------------------------|

G|------------------------------------------------------------|
D|------------------------------------------------------------|
A|-9-9--------------------------------------------------------|
E|------------------------------------------------------------|


Go back to tablature