Shrinking Universe (tablature)

MuseWiki, wiki for the band Muse
Jump to: navigation, search
Muse
Shrinking Universe
Hullabaloo Disc 1
GUITAR TUNING : STANDARD

<-------------------chords------------------->
intro:
Am


verse:
Am                  Dm
Cast your ideals on to me 
         E                 Am
and I'll show you what you really need 
Am             Dm
give too much attention 
         E                 Dm
and I'll reflect your imperfections


chorus:
A         A/C#     Dm
can't you see it's over 
                   E        Dm           Am
because you're the God of a shrinking universe


verse:
Am             Dm
purposeless survival 
            E               Am
now there's nothing left to die for 
Am                   Dm
so don't struggle to recognize 
        E                 Am
another coldly heart-felt suicide


chorus:
A         A/C#     Dm
can't you see it's over 
                   E        Dm           Am
because you're the God of a shrinking universe


bridge:
e|-----------5---7---|
B|-----------7---9---|
G|---1---5---5---7---|
D|---2---7---7---9---|
A|---2---7---5---7---|
E|---0---5---5---7---|


A - A/C# - Dm - E - Dm - Am
Oooooooooooooooooooooooooooooooooo
Ahhhhhhhhhhhhhhhhwawawahhhhhhhhhh


chorus:
A         A/C#     Dm
can't you see it's over 
                   E        Dm           Am
because you're the God of a shrinking universe












<---------------------tab------------------------->
intro:
e|-----------0-----------0---|
B|-------0-----------0-------|
G|-----5---5-------5---5-----|
D|---7-----------7-----------|
A|---------------------------|
E|---------------------------|

verse:
e|-----------0--------------0--------------0--------------0---|
B|-------0--------------6--------------3--------------6-------|
G|-----5---5----------7---7----------4---4----------5---5-----|
D|---7--------------9--------------6--------------7-----------|
A|------------------------------------------------------------|
E|------------------------------------------------------------|

chorus:
e|------------12------------12-10------------0----------12-10----------0--|
B|-------10--------------10--------------6-----------10------------0------|
G|-----9----9---------10---------------7---7------10-------------5---5----|
D|--11--------------0----------------9----------0--------------7----------|
A|------------------------------------------------------------------------|
E|------------------------------------------------------------------------|

repeat verse then chorus...

bridge: (juzt play the notez of d chordz here...)
e|-----------5---7---|
B|-----------7---9---|
G|---1---5---5---7---|
D|---2---7---7---9---|
A|---2---7---5---7---|
E|---0---5---5---7---|

then...
e|---0--------------|
B|---1-------1--1---|
G|---2---1---0--0---|
D|---2---2---2--2---|
A|---0---2---3--4---|
E|-------0----------|

then...
e|--------------------------|
B|---2--2---6-------6-------|
G|---2--2---7---1---7-------|
D|---2--2---7---2---7---7---|
A|---0--4---5---2---5---7---|
E|--------------0-------5---|

chorus:
e|--------------------------|
B|---2--2---6-------6-------|
G|---2--2---7---1---7-------|
D|---2--2---7---2---7---7---|
A|---0--4---5---2---5---7---|
E|--------------0-------5---|




Key:

T   - Tap (Strings)
PM  - Palm Muting
/   - Slide Up
\   - Slide Down
h   - Hammer-on
p   - Pull-off
~   - Let the note ringing
s   - Strum softly
c   - Continue and Continuation
^   - Bend
*   - Harmonics
x  - dead string or scratching

Back to Tablature