Shine Acoustic (tablature)

MuseWiki, wiki for the band Muse
Jump to: navigation, search

Acoustic Guitar part.

Each '-' is a beat; change it if I'm wrong ;)


e|0-------1---1---0-0-0-0-1-111---
B|1-------3---0---1-1-1-1-3-210---
G|0-------2---0---0-1-2-1-2-220---
D|2-------0---0---2-2-2-2-0-000---
A|3-----------2---3-3-3-3-----2---
E|------------3---------------3--- x2

e|----1-1-0-0-0-0-1-2-0-3-0-0-0-0-0-0-0-0-
B|1-1-1-0-1-0-1-1-1-1-1-0-1-1-1-1-1-1-1-1-
G|2-0-2-0-0-1-2-0-2-2-0-0-0-1-2-1-0-1-2-1-
D|2-2-3-0-2-0-2-2-3-0-2-0-2-2-2-2-2-2-2-2-
A|0-x-3-2-3-2-0-x-3-0-3-2-3-3-3-3-3-3-3-3-
E|--3-1-3---0---3-1-2---3-----------------

When it goes strum-mental, just fret 3 on the high e string for the duration.


Chords

C
C
Dm              G7	
C       Caug    Am/C    Caug
Dm      Dm(M7)  Dm7     G

C                 Dm         G7
Who cares for the life we've earned?

C  Caug	 Am/C   Caug   Dm   Dm(M7) Dm7  G
Someone's sold all the truth    you've earned.

Am  C/G	  F   G7          C	Em/B	Am	C/G
Remember when  we used to shine


  F    D/F#  C/G   G7
And had no   fear   or sense of time

C	Caug	Am/C	Caug 
When it creeps up on you
C	Caug	Am/C	Caug 

C                         Dm         G7
You can't cry now there's nothing to feel.

C  Caug	 Am/C   Caug    Dm   Dm(M7) Dm7  G7 
No one's noticed    our loneliness.
 
Am   C/G  F   G             C	Em/B	Am	C/G
Remember when   you used to tease

    F    D/F#  C/G    G7 
And made us    scream  eternal joy.

C	Caug	Am/C	Caug 
C	Caug	Am/C	Caug 
 
C                     Dm        G7
I believed that you'd always be here

       C                   Dm          G7
'Cause once you promised a life with no fear.

Am     C/G   F    G7   C   Em/B   Am	C/G 
Please don't break my ideals
    F   D/F#   C/G    G7            C    Em/B   Am   C/G
And say what's fake     was always real. 

F    D/F#    C/G   G7      C    Em/B   Am   C/G
Hope was the one,    now I know.

F    D/F#    C/G   G7      
Take me      back  again.

C	Caug	Am/C	Caug 
C	Caug	Am/C	Caug
C


Go back to tablature