Shine (tablature)

MuseWiki, wiki for the band Muse
Jump to: navigation, search

Shine
(Tempo = 76)
Capo 3ºfret

                                                     
E |-------|-------|----------------------------------------------------|
B |--2g---|-------|--2-----2-------------------------------------------|
G |--2g---|-------|--2-----------2--------2L-2-------------------------|
D |--2g---|-------|--2--------------2----------------------------------|
A |--0g---|-------|--0-------------------------------------------------|
E |-------|-------|----------------------------------------------------|


----------------------------------------------------|
--2-----2-------------------------------------------|
--2-----------2--------2L-2-------------------------|
--2--------------2----------------------------------|
--0-------------------------------------------------|
----------------------------------------------------|


----------------------------------------------------|
--3-----3-------------------------------------------|
--4-----------4--------4L-4-------------------------|
--4--------------4----------------------------------|
--2-------------------------------------------------|
----------------------------------------------------|


----------------------------------------|
-----3--------------3-------------------|
--1-----1-----1-------------------------|
--2--------2----------------------------|
--2--------------2----------------------|
--0-------------------------------------|


--------------------------------------------------------------------------------
--------------------2-----------------------------------------------------------
--2--------------------------2L-------2-----------------------------------------
--2--------------------------------------------2--------------------------3-----
--0-----------------------------------------------------------------------------
--------------------------------------------------------------------------------


--------------------------------------------------------------------|
---------------------2L-------2-------------------------------------|
------------2-----------------------------2-------------------------|
------------------------------------------------------3-------------|
--------------------------------------------------------------------|
--------------------------------------------------------------------|


--------------------------------------------------------------------------------
-----------------------------2L-------2-----------------------------------------
--------------------2-----------------------------2-----------------------------
--4-----------------------------------------------------------4-----------3-----
--------------------------------------------------------------------------------
--------------------------------------------------------------------------------


--------------------------------------------------------------------|
---------------------2L-------2-------------------------------------|
------------2-----------------------------2-------------------------|
------------------------------------------------------3-------------|
--------------------------------------------------------------------|
--------------------------------------------------------------------|


----------------------------------------|
--3--3-----------3-----3--------3-------|
--4-----4-----4-----3-----3--2-----2----|
--4--------4----------------------------|
--2-------------------------------------|
----------------------------------------|


----------------------------------------||
--------3--3--------3-------------------||
-----1--1-----1-------------------------||
--2-----2--------2----------------------||
----------------------------------------||
----------------------------------------||


---------------------------------------------------------------------------|
-------------------2--------------------------2L-------2-------------------|
o------------------2-----2-----------------------------------2-------------|
o------------------2-----------2-----2-----------------------------2-------|
-0--------0--------0-------------------------------------------------------|
---------------------------------------------------------------------------|


----------------------------------------------------------------------------|
--------------------2--------------------------2L-------2-------------------|
--------------------2-----2-----------------------------------2-------------|
--------------------2-----------2-----2-----------------------------2-------|
--0--------0--------0-------------------------------------------------------|
----------------------------------------------------------------------------|


----------------------------------------------------|
--0--------3L-3-----0-------------------------------|
----------------------------------------------------|
-----4--------------------4-------------------------|
----------------------------------------------------|
----------------------------------------------------|


----------------------------------------------------|
-----3----------------------------------------------|
-----------1L-1-----1-------------------------------|
--2-----------------------2-------------------------|
----------------------------------------------------|
----------------------------------------------------|


--------------------------------------------------------------------------------
--------------------2-----------------------------------------------------------
--2--------------------------2L-------2-----------------------------------------
--2--------------------------------------------2--------------------------3-----
--0-----------------------------------------------------------------------------
--------------------------------------------------------------------------------


--------------------------------------------------------------------|
---------------------2L-------2-------------------------------------|
------------2-----------------------------2-------------------------|
------------------------------------------------------3-------------|
--------------------------------------------------------------------|
--------------------------------------------------------------------|


--------------------------------------------------------------------------------
-----------------------------2L-------2-----------------------------------------
--------------------2-----------------------------2-----------------------------
--4-----------------------------------------------------------4-----------3-----
--------------------------------------------------------------------------------
--------------------------------------------------------------------------------


--------------------------------------------------------------------|
---------------------2L-------2-------------------------------------|
------------2-----------------------------2-------------------------|
------------------------------------------------------3-------------|
--------------------------------------------------------------------|
--------------------------------------------------------------------|


----------------------------------------|
--3--3-----------3-----3--------3-------|
--4-----4-----4-----3-----3--2-----2----|
--4--------4----------------------------|
--2-------------------------------------|
----------------------------------------|


----------------------------------------|----------------------------|
--------3--3--------3-------------------|--------2-----------2-------|
-----1--1-----1-------------------------|-----2-----2-----2-----2----|
--2-----2--------2----------------------|--4-----------2-------------|
----------------------------------------|----------------------------|
----------------------------------------|----------------------------|


----------------------------|
--------3-----------3-------|
-----2-----2-----4-----4----|
--0-----------2-------------|
----------------------------|
----------------------------|


----------------------------------------------------|
--------------2-----------------------2-------------|
--------2--------2-----2--------4--------4-----4----|
-----2-----2--------2--------3-----3--------3-------|
--0-------------------------------------------------|
--------------------------4-------------------------|


----------------------------------------------------|
--------------2-----------------------2-------------|
--------2--------2-----2--------2--------2-----2----|
-----4-----4--------4--------2-----2--------2-------|
----------------------------------------------------|
--2-----------------------0-------------------------|


--------------2-----------------------2-------------|
--------3--------3-----3--------0--------0-----0----|
-----2-----2--------2--------2-----2--------2-------|
--0-----------------------1-------------------------|
----------------------------------------------------|
----------------------------------------------------|


--------------0-----------------------0-------------|
--------0--------0-----0--------0--------0----------|
-----2-----2--------2--------1-----1--------1-------|
--2-----------------------2-------------------------|
----------------------------------------------------|
----------------------------------------------------|


----------------------------------------------------------------------------|
--------------------------2-----------------------------------2-------------|
-----------2--------------------2--------------2--------------------2-------|
--2-----------------2-----------------3-----------------3-------------------|
----------------------------------------------------------------------------|
----------------------------------------------------------------------------|


----------------------------------------------------------------------------|
--------------------------2-----------------------------------2-------------|
-----------2--------------------2--------------2--------------------2-------|
--4-----------------4-----------------3-----------------3-------------------|
----------------------------------------------------------------------------|
----------------------------------------------------------------------------|


----------------------------------------------------------------------------|
--------------------------2-----------------------------------2-------------|
-----------2--------------------2--------------2--------------------2-------|
--4-----------------4-----------------3-----------------3-------------------|
----------------------------------------------------------------------------|
----------------------------------------------------------------------------|


---------------------------------------------------------------------------||
--------------------------2-----------------------------------2------------||
-----------2--------------------2--------------2--------------------2-----o||
--4-----------------4-----------------3-----------------3-----------------o||
---------------------------------------------------------------------------||
---------------------------------------------------------------------------||


--0--0--0--0--0--0--0-----------------0-----------------0-------------------|
--2--2--2--2--2--2--2-----------------2-----------------2-------------------|
--2--2--2--2--2--2--2-----------------2-----------------2-------------------|
--2--2--2--2--2--2--2-----------------2-----------------2-------------------|
--0--0--0--0--0--0--0-----------------0-----------------0-------------------|
----------------------------------------------------------------------------|


--0--0--0--0----|--0--0--0--0----|--0--0--0--0----|----------------|
--2--2--2--2----|--0--0--0--0----|--3--3--3--3----|--2--2--2--2----|
--2--2--2--2----|--2--2--2--2----|--1--1--1--1----|--2--2--2--2----|
--2--2--2--2----|--0--0--0--0----|--2--2--2--2----|--2--2--2--2----|
--0--0--0--0----|--2--2--2--2----|--2--2--2--2----|--0--0--0--0----|
----------------|----------------|--0--0--0--0----|----------------|


----------------|--0--0--0--0----|--0--0--0--0----|--2--2--0--0----|
--2--2--2--2----|--0--0--0--0----|--3--3--3--3----|--2--2--2--2----|
--2--2--2--2----|--2--2--2--2----|--1--1--1--1----|--2--2--2--2----|
--4--4--3--3----|--0--0--0--0----|--2--2--2--2----|--4--4--2--2----|
--0--0--0--0----|--2--2--2--2----|--2--2--2--2----|----------------|
----------------|----------------|--0--0--0--0----|----------------|


--2--2--0--0----|----------------|--2--2--0--0----|--2--2--2--2----|
--3--3--3--3----|--2--2--2--2----|--2--2--2--2----|--3--3--0--0----|
--2--2--1--1----|--2--2--4--4----|--2--2--2--2----|--2--2--2--2----|
--0--0--2--2----|--2--2--3--3----|--4--4--2--2----|--0--0--1--1----|
----------------|--0--0----------|----------------|----------------|
----------------|--------4--4----|----------------|----------------|


--0--0--0--0----|----------------|--2--2--0--0----|--2--2--2--2----|
--0--0--0--0----|--2--2--2--2----|--2--2--2--2----|--3--3--0--0----|
--2--2--1--1----|--2--2--4--4----|--2--2--2--2----|--2--2--2--2----|
--2--2--2--2----|--2--2--3--3----|--4--4--2--2----|--0--0--1--1----|
----------------|--0--0----------|----------------|----------------|
----------------|--------4--4----|----------------|----------------|


--0--0--0--0----|----------------|--2--2--0--0----|--2--2--2--2----|--0--0----|
--0--0--0--0----|--2--2--2--2----|--2--2--2--2----|--3--3--0--0----|--0--0----|
--2--2--1--1----|--2--2--4--4----|--2--2--2--2----|--2--2--2--2----|--2--1----|
--2--2--2--2----|--2--2--3--3----|--4--4--2--2----|--0--0--1--1----|--2--2----|
----------------|--0--0----------|----------------|----------------|----------|
----------------|--------4--4----|----------------|----------------|----------|


----------------------|----------------------|----------------------|
-----------2----------|-----------2----------|-----------2----------|
-----2--------2-------|-----2--------2-------|-----2--------2-------|
--2-----2--------2----|--3-----3--------3----|--4-----4--------4----|
----------------------|----------------------|----------------------|
----------------------|----------------------|----------------------|


----------------------||---------------------|----------------------|
-----------2----------||----------2----------|-----------2----------|
-----2--------2-------||o---2--------2-------|-----2--------2-------|
--3-----3--------3----||o2-----2--------2----|--3-----3--------3----|
----------------------||---------------------|----------------------|
----------------------||---------------------|----------------------|


----------------------|---------------------|||
-----------2----------|-----------2---------|||
-----2--------2-------|-----2--------2-----o|||
--4-----4--------4----|--3-----3--------3--o|||
----------------------|---------------------|||
----------------------|---------------------|||


Go back to tablature </nowiki>