Save Me (tablature)

MuseWiki, wiki for the band Muse
Jump to: navigation, search
Verse

E|---2---|---0---|---2---|---0---|

B|---3---|---1---|---3---|---1---|

G|---2---|---2---|---2---|---2---|

D|---0---|---2---|---0---|---2---|

A|-------|---0---|-------|---0---|

E|-------|-------|-------|-------|



E|---------------|---------------|---2---|

B|---------------|---------------|---3---|

G|---------------|---------------|---2---|

D|--4-4-4-5-5-5--|--4-4-4-5-5-5--|---0---|

A|-3-3-3---3-3-3-|-2-2-2---2-2-2-|-------|

E|---------------|---------------|-------|



E|---------------|---------------|-------|

B|---------------|---------------|---3---|

G|---------------|---------------|---3---|

D|--4-4-4-5-5-5--|--4-4-4-5-5-5--|---3---|   repeat

A|-3-3-3---3-3-3-|-2-2-2---2-2-2-|---1---|

E|---------------|---------------|-------|



Chorus -

E|-----------------------------|

B|-----------------------------|

G|---7-7-7-7-7-7-7-7-7-7-7-7---|

D|--4-4-4-5-5-5-4-4-4-5-5-5----|

A|-----------------------------|

E|-----------------------------|


Break (also this is the outro)

E|-----5-5-2------|-----5-5-2------|

B|----0-0---0-0---|----0-0---0-0---|

G|---0-------0-0--|---0-------0-0--|

D|--------------0-|--------------0-|

A|----------------|----------------|

E|-3--------------|-3--------------|

Solo

E|--10-8-7-8-7-5-7-5---5----------------------------------------------|

B|-------------------8---8-7-8-7-5-7-5-3-5-3---3----------------------|

G|-------------------------------------------5---5-4-5-4-2-4-2-0-2-0--|

D|--------------------------------------------------------------------|

A|--------------------------------------------------------------------|

E|--------------------------------------------------------------------|



E|-----------------------------------------------------------------------|

B|-----------------------------------------------------------------------|

G|----0-------------------------------------------------------------2-4--|

D|--4---4-2-4-2-0-2-0---0-------------------0-2-0-2-0-2-4-5-4-5-4-5------|

A|--------------------3---3-2-3-2-0-2-3-2-3------------------------------|

E|-----------------------------------------------------------------------|


E|-----------------------------------5---5---5-7-8-7-8-7-8-10-8---|

B|---------------------5-7-5-7-5-7-8---8---8----------------------|

G|-2-4-2-4-5-7-5-7-5-7--------------------------------------------|

D|----------------------------------------------------------------|

A|----------------------------------------------------------------|

E|----------------------------------------------------------------|


Chorus -

E|-----------------------------|

B|-----------------------------|

G|---7-7-7-7-7-7-7-7-7-7-7-7---|

D|--4-4-4-5-5-5-4-4-4-5-5-5----|

A|-----------------------------|

E|-----------------------------|


Go back to tablature