Ruled By Secrecy (tablature)

MuseWiki, wiki for the band Muse
Jump to: navigation, search

Guitar

Gtr. 1 (Piano treble notes)
e|----------------------|
B|--13------------------|
G|-----13----------13---| X 8
D|--------15-14-15------|
A|----------------------|
E|----------------------|

Gtr.2 (Piano bass notes)
e|---------------|
B|---------------|
G|---------------| X 4
D|------6-5-6----|
A|----7-------7--|
E|--7------------|

Gtr. 1
e|----------------------|
B|--13------------------|
G|-----13----------13---| X 4
D|--------15-14-15------|
A|----------------------|
E|----------------------|

Gtr. 2
e|---------------|
B|---------------|
G|---------------| X 4
D|------6-5-6----|
A|----7-------7--|
E|--7------------|

Gtr. 1
e|----------------------|
B|--12------------------|
G|-----12----------12---| X 4
D|--------14-13-14------|
A|----------------------|
E|----------------------|

Gtr. 2
e|---------------|
B|---------------|
G|---------------| X 4
D|------5-4-5----|
A|----6-------6--|
E|--6------------|

Gtr. 1
e|----------------------|
B|--11------------------|
G|-----11----------11---| X 4
D|--------13-12-13------|
A|----------------------|
E|----------------------|

Gtr. 2
e|---------------|
B|---------------|
G|---------------| X 4
D|------4-3-4----|
A|----5-------5--|
E|--5------------|

Gtr. 1
e|----------------------|
B|--12------------------|
G|-----12----------12---| X 4
D|--------14-13-14------|
A|----------------------|
E|----------------------|

Gtr. 2
e|---------------|
B|---------------|
G|---------------| X 4
D|------5-4-5----|
A|----6-------6--|
E|--6------------|

Chorus:

Gtr. 1
e|----------------------|
B|--13------------------|
G|-----13----------13---| X 2
D|--------15-14-15------|
A|----------------------|
E|----------------------|

Gtr. 2
e|---------------|
B|---------------|
G|---------------| X 2
D|------6-5-6----|
A|----7-------7--|
E|--7------------|

Gtr. 1
e|----------------------|
B|--14------------------|
G|-----14----------14---| X 2
D|--------16-15-16------|
A|----------------------|
E|----------------------|

Gtr. 2
e|---------------|
B|---------------|
G|---------------| X 2
D|------7-6-7----|
A|----8-------8--|
E|--8------------|

Gtr. 1
e|----------------------|
B|--15------------------|
G|-----15----------15---| X 4
D|--------17-16-17------|
A|----------------------|
E|----------------------|

Gtr. 2
e|---------------|
B|---------------|
G|---------------| X 4
D|------8-7-8----|
A|----9-------9--|
E|--9------------|

Gtr. 1
e|----------------------|
B|--16------------------|
G|-----16----------16---| X 2
D|--------18-17-18------|
A|----------------------|
E|----------------------|

Gtr. 2
e|------------------|
B|------------------|
G|------------------| X 2
D|--------9-8-9-----|
A|-----10-------10--|
E|--10--------------|

Gtr. 1
e|----------------------|
B|--15------------------|
G|-----15----------15---| X 2
D|--------17-16-17------|
A|----------------------|
E|----------------------|

Gtr. 2
e|---------------|
B|---------------|
G|---------------| X 2
D|------8-7-8----|
A|----9-------9--|
E|--9------------|

Gtr. 1
e|----------------------|
B|--14------------------|
G|-----14----------14---| X 4
D|--------16-15-16------|
A|----------------------|
E|----------------------|

Gtr. 2
e|---------------|
B|---------------|
G|---------------| X 2
D|------7-6-7----|
A|----8-------8--|
E|--8------------|

Gtr. 1
E|-----------------|
B|13---------------|
G|---13----------13| X 4
D|------15-14-15---|
A|-----------------|
E|-----------------|

Gtr. 2
E|-----------|
B|-----------|
G|-----------| X 4
D|----6-5-6--|
A|--7-------7|
E|7----------|

Gtr. 1
e|----------------------|
B|--14------------------|
G|-----14----------14---| X 2
D|--------16-15-16------|
A|----------------------|
E|----------------------|

Gtr. 2
e|---------------|
B|---------------|
G|---------------| X 2
D|------7-6-7----|
A|----8-------8--|
E|--8------------|

Gtr. 1
e|----------------------|
B|--15------------------|
G|-----15----------15---| X 2
D|--------17-16-17------|
A|----------------------|
E|----------------------|

Gtr. 2
e|---------------|
B|---------------|
G|---------------| X 2
D|------8-7-8----|
A|----9-------9--|
E|--9------------|

Gtr. 1
e|----------------------|
B|--16------------------|
G|-----16----------16---| X 4
D|--------18-17-18------|
A|----------------------|
E|----------------------|

Gtr. 2
e|------------------|
B|------------------|
G|------------------| X 4
D|--------9-8-9-----|
A|-----10-------10--|
E|--10--------------|

Gtr. 1
e|----------------------|
B|--15------------------|
G|-----15----------15---| X 4
D|--------17-16-17------|
A|----------------------|
E|----------------------|

Gtr. 2
e|---------------|
B|---------------|
G|---------------| X 4
D|------8-7-8----|
A|----9-------9--|
E|--9------------|

Solo:
Notes in brackets show the bass chord.

e|-------4-4-4--6--4--|
B|-------6-6-6--6--6--|
G|-------5-5-5--5--5--| X 2
D|-(3)----------------|
A|-(3)----------------|
E|-(1)----------------|

e|-------3-3-3--4--3--|
B|-------5-5-5--5--5--|
G|-------5-5-5--5--5--| X 2
D|-(2)----------------|
A|-(2)----------------|
E|-(0)----------------|

e|-------3-3-4--6--4--3--|
B|-------4-4-4--4--4--4--|
G|-------5-5-5--5--5--5--| X 2
D|-(1)-------------------|
A|-(1)-------------------|
E|-----------------------|

e|-------3-3-3--4--3--|
B|-------5-5-5--5--5--|
G|-------5-5-5--5--5--| X 2
D|--------------------|
A|-(3)----------------|
E|-(3)----------------|

Back to Tablature