Resistance (tablature)

MuseWiki, wiki for the band Muse
Jump to: navigation, search

Tabbed and Added by Adam.

Muse Tab
Name Resistance
Length 05:46
Tuning EADGBE (standard)
Tempo 135bpm
Timing 4/4

Guitar

Intro: 
  
  Let Ring throughout Intro and Verse

   W                                                   W                         W
E|-------------------------|-------------------------|-------------------------|-------------------------|
B|-13----------------------|-------------------------|-------------------------|-12----------------------|
G|-------------------------|-------------------------|-------------------------|-------------------------|
D|-------------------------|-------------------------|-------------------------|-------------------------|
A|-12----------------------|-------------------------|-10----------------------|-------------------------|
E|-------------------------|-------------------------|-------------------------|-------------------------|
   Am                                                  G

   W                         W                         W                         W
E|-------------------------|-------------------------|-------------------------|-------------------------|
B|-------------------------|-10----------------------|-9-----------------------|-12----------------------|
G|-------------------------|-------------------------|-------------------------|-------------------------|
D|-------------------------|-------------------------|-------------------------|-------------------------| x 4
A|-8-----------------------|-------------------------|-7-----------------------|-11----------------------|
E|-------------------------|-------------------------|-------------------------|-------------------------|
   F                                                   E

This is the live version that Matt plays for Resistance, each note is striken several times,
watch the Seattle version for the beat, he also uses a very tone specific effect, palm muting helps
E|---------------------------------------------------3---3---3---1----0----|
B|--5----5----3----3---1----1----0---3---5---5---7---3---4---3---1----0----|
G|--7—---5----4----4---2----2----1---4---4---5---5---5---5---4---2----1----|
D|--7----5----5----3---3----2----2---2---2---7---7---5---5---3---3----2----|
A|-------------------------------------------------------------------------|
E|-------------------------------------------------------------------------|



Verse:

   W                                                   W                         W
E|-------------------------|-------------------------|-------------------------|-------------------------|
B|-13----------------------|-------------------------|-------------------------|-12----------------------|
G|-------------------------|-------------------------|-------------------------|-------------------------|
D|-------------------------|-------------------------|-------------------------|-------------------------|
A|-12----------------------|-------------------------|-10----------------------|-------------------------|
E|-------------------------|-------------------------|-------------------------|-------------------------|

   W                         W                         W                         W
E|-------------------------|-------------------------|-------------------------|-------------------------|
B|-------------------------|-10----------------------|-9-----------------------|-12----------------------|
G|-------------------------|-------------------------|-------------------------|-------------------------|
D|-------------------------|-------------------------|-------------------------|-------------------------|
A|-8-----------------------|-------------------------|-7-----------------------|-11----------------------|
E|-------------------------|-------------------------|-------------------------|-------------------------|

   W                                                   W                         W
E|-------------------------|-------------------------|-------------------------|-------------------------|
B|-13----------------------|-------------------------|-------------------------|-12----------------------|
G|-------------------------|-------------------------|-------------------------|-------------------------|
D|-------------------------|-------------------------|-------------------------|-------------------------|
A|-12----------------------|-------------------------|-10----------------------|-------------------------|
E|-------------------------|-------------------------|-------------------------|-------------------------|

   W                         W
E|-------------------------|-------------------------|
B|-------------------------|-10----------------------|
G|-------------------------|-------------------------|
D|-------------------------|-------------------------|
A|-8-----------------------|-------------------------|
E|-------------------------|-------------------------|

Pre-chorus:

   E  E  E  E  Q     E  E    Q     E  E  E  E  E  E    E  E  E  E  Q     E  E    Q     E  E  E  E  E  E
E|-------------------------|-------------------------|-------------------------|-------------------------|
B|-------------------------|-------------------------|-------------------------|-------------------------|
G|----10-10-10-10----10-10-|-10----10-10-10-10-0--9--|----9--9--9--9-----9--9--|-9-----9--9--9--9--9--7--|
D|----10-10-9--10----10-9--|-10----10-9--10-12-0--10-|----10-10-9--10----10-9--|-10----10-9--10-12-12-9--|
A|----8--8--8--8-----8--8--|-8-----8--8--8--8--0--12-|----12-12-12-12----12-12-|-12----12-12-12-12-12-10-|
E|-------------------------|-------------------------|-------------------------|-------------------------|

   E  E  E  E  Q     E  E    Q     E  E  E  E  E  E    E  E  E  E  Q     E  E    Q     E  E  E  E  E  E
E|-------------------------|-------------------------|-------------------------|-------------------------|
B|-------------------------|-------------------------|-------------------------|-------------------------|
G|----7--7--7--7-----7--7--|-7-----7--7--7--7--7--5--|----5--5--5--5-----5--5--|-5-----5--5--5--9--9--10-|
D|----9--9--7--9-----9--7--|-9-----9--7--9--10-5--7--|----7--7--5--7-----7--5--|-7-----7--5--7--9--10-10-|
A|----10-10-10-10----10-10-|-10----10-10-10-10-10-8--|----8--8--8--8-----8--8--|-8-----8--8--8--8--8--8--|
E|-------------------------|-------------------------|-------------------------|-------------------------|

   E  E  E  E  Q     E  E    Q     E  E  E  E  E  E    E  E  E  E  Q     E  E    Q     E  E  E  E  E  E
E|-------------------------|-------------------------|-------------------------|-------------------------|
B|-------------------------|-------------------------|-------------------------|-------------------------|
G|----10-10-10-10----10-10-|-10----10-10-10-10-0--9--|----9--9--9--9-----9--9--|-9-----9--9--9--9--9--7--|
D|----10-10-9--10----10-9--|-10----10-9--10-12-0--10-|----10-10-9--10----10-9--|-10----10-9--10-12-12-9--|
A|----8--8--8--8-----8--8--|-8-----8--8--8--8--0--12-|----12-12-12-12----12-12-|-7-----12-12-12-12-12-10-|
E|-------------------------|-------------------------|-------------------------|-------------------------|

   E  E  E  E  Q     E  E    Q     E  E  E  E  E  E    E  E  E  E  Q     E  E    E  E  E  E  E  E  E  E
E|-------------------------|-------------------------|-------------------------|-------------------------|
B|-------------------------|-------------------------|-------------------------|-------------------6--6--|
G|----7--7--7--7-----7--7--|-7-----7--7--7--7--7--5--|----5--5--5--5-----5--5--|-------5--5--5--5--5--5--|
D|----9--9--7--9-----9--7--|-9-----9--7--9--10-5--7--|----7--7--5--7-----7--5--|-3--3--3--3--3--3--3--3--|
A|----10-10-10-10----10-10-|-10----10-10-10-10-10-8--|----8--8--8--8-----8--8--|-3--3--3--3--3--3--3--3--|
E|-------------------------|-------------------------|-------------------------|-------------------------|
                                                                                PM....................... (Slowly release)

Chorus:

   E  E  E  E  E  E  E  E    E  E  E  E  E  E  E  E    E  E  E  E  E  E  E  E    E  E  E  E  E  E  E  E
E|-------------------------|-------------------------|-------------------------|-------------------------|
B|-------------------------|-------------------------|-------------------------|-------------------------|
G|-12-12-12-12-12-12-12-12-|-10-10-10-10-10-10-10-10-|-9--9--9--9--9--9--9--10-|-12-12-12-12-12-12-12-12-|
D|-10-10-10-10-10-10-10-10-|-10-10-10-10-10-10-10-10-|-10-10-10-10-10-10-10-10-|-10-10-10-10-10-10-10-10-|
A|-10-10-10-10-10-10-10-10-|-8--8--8--8--8--8--8--8--|-7--7--7--7--7--7--7--8--|-10-10-10-10-10-10-10-10-|
E|-------------------------|-------------------------|-------------------------|-------------------------|

   E  E  E  E  E  E  E  E    E  E  E  E  E  E  E  E    E  E  E  E  E  E  E  E    E  E  E  E  E  E  E  E
E|-------------------------|-------------------------|-------------------------|-------------------------|
B|-------------------------|-------------------------|-------------------------|-------------------------|
G|-12-12-12-12-12-12-12-12-|-10-10-10-10-10-10-10-10-|-10-10-10-9--9--9--9--9--|-7--7--7--7--7--7--7--7--|
D|-10-10-10-10-10-10-10-10-|-10-10-10-10-9--9--9--9--|-10-10-10-10-10-10-10-10-|-7--7--7--7--7--7--7--7--|
A|-10-10-10-10-10-10-10-10-|-8--8--8--8--8--8--8--8--|-8--8--8--7--7--7--7--7--|-7--7--7--7--7--7--7--7--|
E|-------------------------|-------------------------|-------------------------|-------------------------|

   E  E  E  E  E  E  E  E    E  E  E  E  E  E  E  E    E  E  E  E  E  E  E  E    E  E  E  E  E  E  E  E
E|-------------------------|-------------------------|-------------------------|-------------------------|
B|-------------------------|-------------------------|-------------------------|-------------------------|
G|-9--9--9--9--9--9--9--9--|-9--9--9--9--9--9--9--9--|-10-10-10-10-10-10-10-10-|-10-10-10-10-10-10-10-10-|
D|-10-10-10-12-12-12-12-12-|-10-10-10-10-9--9--9--9--|-10-10-10-10-10-10-10-10-|-9--9--9--9--9--9--9--9--|
A|-7--7--7--7--7--7--7--7--|-7--7--7--7--7--7--7--7--|-8--8--8--8--8--8--8--8--|-8--8--8--8--8--8--8--8--|
E|-------------------------|-------------------------|-------------------------|-------------------------|

   E  E  E  E  Q     E  E    Q     E  E  E  E  E  E    W                         H          E  E  E  S S
E|-------------------------|-------------------------|-------------------------|-------------------------|
B|-------------------------|-------------------------|-------------------------|------------5b-5--3--5-3-|
G|----10-10-10-10----10-10-|-10----10-10-10-10-------|-------------------------|-------------------------|
D|----10-10-9--10----10-9--|-10----10-9--10-10----2--|-------------------------|-------------------------|
A|----8--8--8--8-----8--8--|-8-----8--8--8--8-----2--|-------------------------|-------------------------|
E|-------------------------|----------------------0--|-------------------------|-------------------------|

Pre-verse:

   H           E  E  E  E    Q     Q     Q     E  E    H           E  E  E  E    Q     Q     Q     E  E  
E|-------------------------|-------------------------|-------------------------|-------------------------|
B|-1~~~~~~~~---------------|-------------------------|-------------------------|-------------------------|
G|-------------------4--5--|-7-----5-----4-----5--7~~|~~~~~~~~~~~--------4--5--|-7-----5-----4-----5--2--|
D|----------------2--------|-------------------------|----------------2--------|-------------------------|
A|-------------------------|-------------------------|-------------------------|-------------------------|
E|-------------------------|-------------------------|-------------------------|-------------------------|

   W                         H           Q.       S S  W
E|-------------------------|-------------------------|-------------------------|-------------------------|
B|-------------------------|-------------------------|-------------------------|-12----------------------|
G|-------------------------|----------------------1-2|-4-----------------------|-------------------------|
D|-------------------------|-------------------------|-------------------------|-------------------------|
A|-------------------------|-------------------------|-------------------------|-11----------------------|
E|-------------------------|-------------------------|-------------------------|-------------------------|

Verse:

   W                                                   W                         W
E|-------------------------|-------------------------|-------------------------|-------------------------|
B|-13----------------------|-------------------------|-------------------------|-12----------------------|
G|-------------------------|-------------------------|-------------------------|-------------------------|
D|-------------------------|-------------------------|-------------------------|-------------------------|
A|-12----------------------|-------------------------|-10----------------------|-------------------------|
E|-------------------------|-------------------------|-------------------------|-------------------------|

   W                         W                         W                         W
E|-------------------------|-------------------------|-------------------------|-------------------------|
B|-------------------------|-10----------------------|-9-----------------------|-12----------------------|
G|-------------------------|-------------------------|-------------------------|-------------------------|
D|-------------------------|-------------------------|-------------------------|-------------------------|
A|-8-----------------------|-------------------------|-7-----------------------|-11----------------------|
E|-------------------------|-------------------------|-------------------------|-------------------------|

   W                                                   W                         W
E|-------------------------|-------------------------|-------------------------|-------------------------|
B|-13----------------------|-------------------------|-------------------------|-12----------------------|
G|-------------------------|-------------------------|-------------------------|-------------------------|
D|-------------------------|-------------------------|-------------------------|-------------------------|
A|-12----------------------|-------------------------|-10----------------------|-------------------------|
E|-------------------------|-------------------------|-------------------------|-------------------------|

   W                         W
E|-------------------------|-------------------------|
B|-------------------------|-10----------------------|
G|-------------------------|-------------------------|
D|-------------------------|-------------------------|
A|-8-----------------------|-------------------------|
E|-------------------------|-------------------------|

Pre-chorus:

   E  E  E  E  Q     E  E    Q     E  E  E  E  E  E    E  E  E  E  Q     E  E    Q     E  E  E  E  E  E
E|-------------------------|-------------------------|-------------------------|-------------------------|
B|-------------------------|-------------------------|-------------------------|-------------------------|
G|----10-10-10-10----10-10-|-10----10-10-10-10-0--9--|----9--9--9--9-----9--9--|-9-----9--9--9--9--9--7--|
D|----10-10-9--10----10-9--|-10----10-9--10-12-0--10-|----10-10-9--10----10-9--|-10----10-9--10-12-12-9--|
A|----8--8--8--8-----8--8--|-8-----8--8--8--8--0--12-|----12-12-12-12----12-12-|-12----12-12-12-12-12-10-|
E|-------------------------|-------------------------|-------------------------|-------------------------|

   E  E  E  E  Q     E  E    Q     E  E  E  E  E  E    E  E  E  E  Q     E  E    Q     E  E  E  E  E  E
E|-------------------------|-------------------------|-------------------------|-------------------------|
B|-------------------------|-------------------------|-------------------------|-------------------------|
G|----7--7--7--7-----7--7--|-7-----7--7--7--7--7--5--|----5--5--5--5-----5--5--|-5-----5--5--5--9--9--10-|
D|----9--9--7--9-----9--7--|-9-----9--7--9--10-5--7--|----7--7--5--7-----7--5--|-7-----7--5--7--9--10-10-|
A|----10-10-10-10----10-10-|-10----10-10-10-10-10-8--|----8--8--8--8-----8--8--|-8-----8--8--8--8--8--8--|
E|-------------------------|-------------------------|-------------------------|-------------------------|

   E  E  E  E  Q     E  E    Q     E  E  E  E  E  E    E  E  E  E  Q     E  E    Q     E  E  E  E  E  E
E|-------------------------|-------------------------|-------------------------|-------------------------|
B|-------------------------|-------------------------|-------------------------|-------------------------|
G|----10-10-10-10----10-10-|-10----10-10-10-10-0--9--|----9--9--9--9-----9--9--|-9-----9--9--9--9--9--7--|
D|----10-10-9--10----10-9--|-10----10-9--10-12-0--10-|----10-10-9--10----10-9--|-10----10-9--10-12-12-9--|
A|----8--8--8--8-----8--8--|-8-----8--8--8--8--0--12-|----12-12-12-12----12-12-|-7-----12-12-12-12-12-10-|
E|-------------------------|-------------------------|-------------------------|-------------------------|

   E  E  E  E  Q     E  E    Q     E  E  E  E  E  E    E  E  E  E  Q     E  E    E  E  E  E  E  E  E  E
E|-------------------------|-------------------------|-------------------------|-------------------------|
B|-------------------------|-------------------------|-------------------------|-------------------6--6--|
G|----7--7--7--7-----7--7--|-7-----7--7--7--7--7--5--|----5--5--5--5-----5--5--|-------5--5--5--5--5--5--|
D|----9--9--7--9-----9--7--|-9-----9--7--9--10-5--7--|----7--7--5--7-----7--5--|-3--3--3--3--3--3--3--3--|
A|----10-10-10-10----10-10-|-10----10-10-10-10-10-8--|----8--8--8--8-----8--8--|-3--3--3--3--3--3--3--3--|
E|-------------------------|-------------------------|-------------------------|-------------------------|
                                                                                PM....................... (Slowly release)

Chorus:

   E  E  E  E  E  E  E  E    E  E  E  E  E  E  E  E    E  E  E  E  E  E  E  E    E  E  E  E  E  E  E  E
E|-------------------------|-------------------------|-------------------------|-------------------------|
B|-------------------------|-------------------------|-------------------------|-------------------------|
G|-12-12-12-12-12-12-12-12-|-10-10-10-10-10-10-10-10-|-9--9--9--9--9--9--9--10-|-12-12-12-12-12-12-12-12-|
D|-10-10-10-10-10-10-10-10-|-10-10-10-10-10-10-10-10-|-10-10-10-10-10-10-10-10-|-10-10-10-10-10-10-10-10-|
A|-10-10-10-10-10-10-10-10-|-8--8--8--8--8--8--8--8--|-7--7--7--7--7--7--7--8--|-10-10-10-10-10-10-10-10-|
E|-------------------------|-------------------------|-------------------------|-------------------------|

   E  E  E  E  E  E  E  E    E  E  E  E  E  E  E  E    E  E  E  E  E  E  E  E    E  E  E  E  E  E  E  E
E|-------------------------|-------------------------|-------------------------|-------------------------|
B|-------------------------|-------------------------|-------------------------|-------------------------|
G|-12-12-12-12-12-12-12-12-|-10-10-10-10-10-10-10-10-|-10-10-10-9--9--9--9--9--|-7--7--7--7--7--7--7--7--|
D|-10-10-10-10-10-10-10-10-|-10-10-10-10-9--9--9--9--|-10-10-10-10-10-10-10-10-|-7--7--7--7--7--7--7--7--|
A|-10-10-10-10-10-10-10-10-|-8--8--8--8--8--8--8--8--|-8--8--8--7--7--7--7--7--|-7--7--7--7--7--7--7--7--|
E|-------------------------|-------------------------|-------------------------|-------------------------|

   E  E  E  E  E  E  E  E    E  E  E  E  E  E  E  E    E  E  E  E  E  E  E  E    E  E  E  E  E  E  E  E
E|-------------------------|-------------------------|-------------------------|-------------------------|
B|-------------------------|-------------------------|-------------------------|-------------------------|
G|-9--9--9--9--9--9--9--9--|-9--9--9--9--9--9--9--9--|-10-10-10-10-10-10-10-10-|-10-10-10-10-10-10-10-10-|
D|-10-10-10-12-12-12-12-12-|-10-10-10-10-9--9--9--9--|-10-10-10-10-10-10-10-10-|-9--9--9--9--9--9--9--9--|
A|-7--7--7--7--7--7--7--7--|-7--7--7--7--7--7--7--7--|-8--8--8--8--8--8--8--8--|-8--8--8--8--8--8--8--8--|
E|-------------------------|-------------------------|-------------------------|-------------------------|

Break:

   E  E  E  E  E  E  E  E    E  E  E  E  E  E  E  E    W
E|-------------------------|-------------------------|-8-----------------------|-------------------------|
B|-------------------------|-------------------------|-8-----------------------|-------------------------|
G|-10-10-10-10-10-10-10-10-|-10-10-10-10-10-10-10-10-|-9-----------------------|-------------------------|
D|-7--7--7--7--7--7--7--7--|-7--7--7--7--7--7--7--7--|-10----------------------|-------------------------|
A|-8--8--8--8--8--8--8--8--|-8--8--8--8--8--8--8--8--|-10----------------------|-------------------------|
E|-------------------------|-------------------------|-8-----------------------|-------------------------|

   W                         tr.                       W                         W
E|-3-----------------------|-------------------------|-1-----------------------|-0-----------------------|
B|-3-----------------------|-------------------------|-1-----------------------|-1-----------------------|
G|-4-----------------------|-------------------------|-2-----------------------|-2-----------------------|
D|-5-----------------------|-------------------------|-3-----------------------|-2-----------------------|
A|-5-----------------------|-------------------------|-3-----------------------|-0-----------------------|
E|-3-----------------------|-20\---------------------|-1-----------------------|-------------------------|

   W                         Q.       E  H             W                         W
E|-3-----------------------|-------------------------|-1-----------------------|-0-----------------------|
B|-3-----------------------|----------x--0-----------|-1-----------------------|-1-----------------------|
G|-0-----------------------|----------x--0-----------|-2-----------------------|-2-----------------------|
D|-0-----------------------|----------x--0-----------|-3-----------------------|-2-----------------------|
A|-2-----------------------|----------x--0-----------|-3-----------------------|-0-----------------------|
E|-3-----------------------|-------------------------|-1-----------------------|-------------------------|

   W                         E  E  E  E  E  E  E  E    W                         W
E|-3-----------------------|-------------------------|-1-----------------------|-0-----------------------|
B|-3-----------------------|---------------(5)(5)(5)-|-1-----------------------|-1-----------------------|
G|-0-----------------------|------(5)(5)(5)(5)(5)(5)-|-2-----------------------|-2-----------------------|
D|-0-----------------------|(5)(5)(5)(5)(5)(5)(5)(5)-|-3-----------------------|-2-----------------------|
A|-2-----------------------|(5)(5)(5)(5)(5)(5)(5)(5)-|-3-----------------------|-0-----------------------|
E|-3-----------------------|-------------------------|-1-----------------------|-------------------------|
                            (Harm.)
   W                         H           H             W                         E S S E S S E S S E S S
E|-3-----------------------|-------------------------|-1-----------------------|-------------------------|
B|-3-----------------------|-0-----------3-----------|-1-----------------------|-------------------------|
G|-0-----------------------|-2-----------0-----------|-2-----------------------|-------------------------|
D|-0-----------------------|-2-----------0-----------|-3-----------------------|-7-x-x-7-x-x-7-x-x-7-x-x-|
A|-2-----------------------|-2-----------2-----------|-3-----------------------|-7-x-x-7-x-x-7-x-x-7-x-x-|
E|-3-----------------------|-------------------------|-1-----------------------|-5-x-x-5-x-x-5-x-x-5-x-x-|

   E  E  E  E  E  E  E  E    E  E  E  E  E  E  E  E    E  E  E  E  E  E  E  E    E  E  E  E  E  E  E  E
E|-------------------------|-------------------------|-------------------------|-------------------------|
B|-------------------------|-------------------------|-------------------------|-------------------------|
G|-7--7--7--7--7--7--7--7--|-------------------------|-7--7--7--7--7--7--7--7--|-5--5--5--5--5--5--5--5--|
D|-7--7--7--7--7--7--7--7--|-7--7--7--7--7--7--7--7--|-7--7--7--7--7--7--7--7--|-5--5--5--5--5--5--5--5--|
A|-5--5--5--5--5--5--5--5--|-7--7--7--7--7--7--7--7--|-5--5--5--5--5--5--5--5--|-3--3--3--3--3--3--3--3--|
E|-------------------------|-5--5--5--5--5--5--5--5--|-------------------------|-------------------------|
                                PM.   PM.   PM.   PM.
   E  E  E  E  E  E  E  E    E  E  E  E  E  E  E  E    E  E  E  E  E  E  E  E    E  E  E  E  E  E  E  E
E|-------------------------|-------------------------|-------------------------|-------------------------|
B|-------------------------|-------------------------|-------------------------|-------------------------|
G|-------------------------|-------------------------|-------------------------|-------------------------|
D|-5--5--5--5--5--5--5--5--|-7--7--7--7--7--7--7--7--|-9--9--9--9--10-10-10-10-|-12-12-12-12-15-15-15-15-|
A|-5--5--5--5--5--5--5--5--|-7--7--7--7--7--7--7--7--|-9--9--9--9--10-10-10-10-|-12-12-12-12-15-15-15-15-|
E|-3--3--3--3--3--3--3--3--|-5--5--5--5--5--5--5--5--|-7--7--7--7--8--8--8--8--|-10-10-10-10-13-13-13-13-|

Outro:

   W                                                   W                         W
E|-------------------------|-------------------------|-------------------------|-------------------------|
B|-13----------------------|-------------------------|-------------------------|-12----------------------|
G|-------------------------|-------------------------|-------------------------|-------------------------|
D|-------------------------|-------------------------|-------------------------|-------------------------|
A|-12----------------------|-------------------------|-10----------------------|-------------------------|
E|-------------------------|-------------------------|-------------------------|-------------------------|

   W                         W                         W                         W
E|-------------------------|-------------------------|-------------------------|-------------------------|
B|-------------------------|-10----------------------|-9-----------------------|-12----------------------|
G|-------------------------|-------------------------|-------------------------|-------------------------|
D|-------------------------|-------------------------|-------------------------|-------------------------| x 2
A|-8-----------------------|-------------------------|-7-----------------------|-11----------------------|
E|-------------------------|-------------------------|-------------------------|-------------------------|

   W                                                   W                         W
E|-------------------------|-------------------------|-------------------------|-------------------------|
B|-13----------------------|-------------------------|-------------------------|-12----------------------|
G|-------------------------|-------------------------|-------------------------|-------------------------|
D|-------------------------|-------------------------|-------------------------|-------------------------|
A|-12----------------------|-------------------------|-10----------------------|-------------------------|
E|-------------------------|-------------------------|-------------------------|-------------------------|

   W                         W                         W                         W               (fade out)
E|-------------------------|-------------------------|-------------------------|-------------------------|
B|-------------------------|-10----------------------|-9-----------------------|-12----------------------|
G|-------------------------|-------------------------|-------------------------|-------------------------|
D|-------------------------|-------------------------|-------------------------|-------------------------|
A|-8-----------------------|-------------------------|-7-----------------------|-11----------------------|
E|-------------------------|-------------------------|-------------------------|-------------------------|
This is the live outro that Matt plays again, consult Seattle video for timing and beat
He again uses a very specific effect, with high tone and reverb and ring/echo, have fun!

E|-------------------------------------------------------------12------14-----15----------
B|-----------13------12------10------9-----0>s>12------13------13------15-----13------1---
G|-9---------12------12------10------9-----0>s>9-------12------12------15-----14------2---
D|-10--------x--------x------x-------x-----x>s>x--------x-------x-------x------x------2---
A|-0---------12------10------8-------7----0>s>11-------12------12------15------x----------
E|-12-------------------------------------------------------------------------13----------


W = Whole Note (Semibreve)
H = Half Note (minim)
Q = Quarter Note (Crotchet)
Q.= Dotted Quarter Note ( = E E E ) 
E = Eight Note (quaver)
S = Sixteenth Note (semiquaver / demiquaver)
b = Bend
PM. = Palm Mute
(3) = Harmonic


Go back to tablature