Prelude (tablature)

MuseWiki, wiki for the band Muse
Jump to: navigation, search
Artist: Muse
Album: The 2nd Law
Song: Survival
Tabbed By: A Dead Fly

Standard Tuning

Piano in the beginning is transcribed to guitar until the guitar enters at 2:32

Intro 0:00 - 0:59

E|----------------|
B|----------------|
G|-------3--------| x2
D|----------------|
A|-1--------------|
E|----------------|

Piano Chords
   A#               D#m              A#               D#m
e|--------1-------|--------6-------|--------1-------|--------6-------|
B|--------3-------|--------7-------|--------3-------|--------7-------|
G|-3------3-------|-8------8-------|-3------3-------|-8------8-------|
D|-3------3-------|-8------8-------|-3------3-------|-8------8-------|
A|-1--------------|-6--------------|-1--------------|-6--------------|
E|-1--------------|-6--------------|-1--------------|-6--------------|

   A#               A#aug?           D#      D        Gm      Cm              
e|--------1-------|-2------10------|-6-------5------|-10------8------|
B|--------3-------|-3------7-------|-8-------7------|-11------8------|
G|-3------3-------|-3------7-------|-8-------7------|-12------8------|
D|-3------3-------|-4------8-------|-8-------7------|-12------10-----|
A|-1--------------|--------9-------|-6-------5------|-10------10-----|
E|-1--------------|----------------|-6-------5------|-10------8------|

   A#                                F                Gm
e|-1--------------|----------------|-1--------------|-3--------------|
B|-3--------------|----------------|-1--------------|-3--------------|
G|-3--------------|----------------|-2--------------|-3--------------|
D|-3--------------|----------------|-3--------------|-5--------------|
A|-1--------------|----------------|-3--------------|-5--------------|
E|-1--------------|----------------|-1--------------|-3--------------|

   Dm               D#               A#               D#m
e|-5--------------|-6--------------|--------1-------|--------6-------|
B|-6--------------|-8--------------|--------3-------|--------7-------|
G|-7--------------|-8--------------|-3------3-------|-8------8-------|
D|-7--------------|-8--------------|-3------3-------|-8------8-------|
A|-5--------------|-6--------------|-1--------------|-6--------------|
E|-5--------------|-6--------------|-1--------------|-6--------------|

    A#               B
e|--------1-------|--------2-------|----------------|
B|--------3-------|--------4-------|----------------|
G|-3------3-------|-4------4-------|----------------|
D|-3------3-------|-4------4-------|----------------|
A|-1--------------|-2--------------|----------------|
E|-1--------------|-2--------------|----------------|