Prague (tablature)

MuseWiki, wiki for the band Muse
Jump to: navigation, search

Guitar Tabs


Tuning: Standard


Heavy distortion

e|------------------------------------------------|
B|------------------------------------------------|\
G|-5--5--5--5--5--5--5--5-------------------------| \ 
D|-5--5--5--5--5--5--5--5--5--5--5--5--5--5--5--5-|  Repeat
A|-3--3--3--3--3--3--3--3--5--5--5--5--5--5--5--5-| /
E|-------------------------3--3--3--3--3--3--3--3-|/

This is the only variation. 

"Knowing we might.."
e|----------------------
B|----------------------
G|----------------------
D|--3----5----7----9----
A|--3-x8-5-x8-7-x8-8-x8-
E|--1----3----5----7---- 

Then back to the normal two power chords.

Thats pretty much the whole song, except for the very end:

e|---------|--------------|
B|---------|-- ad. lib ---|
G|---6b----|-- feedback --|
D|---------|-- w/ whammy -|
A|---------|--------------|
E|---------|--------------|

All credit to Barfrog from Ultimateguitar.com

Bass Tabs


G|------------------------|
D|------------5--5--5--5--|
A|3--3--3--3--------------|
E|------------------------|

[0:27]

G|------------------------|
D|------------5--5--5--55-|
A|3--3--3--3--------------|
E|------------------------|

Chorus:

G|-------------------------|
D|-------------------------|
A|-------------------------|
E|1--1--1--1h3-3--3--3--3--|

G|-------------------------|
D|-------------------------|
A|0--0--0--0h2-2--2--2--2--|
E|-----------------------3-|

[0:51] Verse:

G|------------------------|
D|------------5--5--5--55-|
A|3--3--3--33-------------|
E|------------------------|

[1:23] Chorus:

G|-------------------------|
D|-------------------------|
A|-------------------------|
E|1--1--1--1h3-3--3--3--33-|

G|-------------------------|
D|-------------------------|
A|0--0--0--0h2-2--2--2--2--|
E|-----------------------3-|

[1:40] Verse:

G|------------------------|
D|------------5--5--5--5--|
A|3--3--3--3--------------|
E|------------------------|

[2:12] Chorus:

G|-------------------------|
D|-------------------------|
A|-------------------------|
E|1--1--1--1h3-3--3--3--33-|

G|-------------------------|
D|-------------------------|
A|0--0--0--0h2-2--2--2--2--|
E|-----------------------3-|

[2:28] Verse: You can play it like first or second time or like below:

G|------------------------| This is just a variation. I don't know the
D|------------5--5--5--50-| way You will prefer to play this song but
A|3--3--3--30-------------| You got main idea so use Your imagination :)
E|------------------------| 

Anyway - last note - 3 on A except that messy ending.

~All credit to 4useless at Ultimateguitar.com


Go back to tablature