Pink Ego Box (tablature)

MuseWiki, wiki for the band Muse
Jump to: navigation, search
Tuning:Standard

Intro:
----------------------------------------------------------------R
----------------------------------------------------------------E
--6---6---6---6---6---6---6---6---6---6---6---6---6---6---6---6-P
-8---8---8---8---8---8---8---8---7---7---7---7---7---7---7---7--E X2
----------------------------------------------------------------A
----------------------------------------------------------------T

---------------------------------------------------|
---------------------------------------------------|
--6---6---6---6---6---6---6---6---6---6---6---6----|
-8---8---8---8---8---8---8---8---7---7---7---7---7-|
---------------------------------------------------|
---------------------------------------------------|

Verse1:(light palm mute)
-----------------R
-----------------E
-6-6-------------P
-7-7---7--7--7---E x5
-----------------A
-----------------T


 C#              F#m        
---------------------------|
---------------------------|
-6-6-6-6-6-6-6-6--6-6--6-6-|
-6-6-6-6-6-6-6-6--4-4--4-4-|
---------------------------|
---------------------------|
LYRICS:
It's gonna be ok
Can't afford another day
At 50 bytes per second
I've never seen your face
I've never heard your voice

Pre chorus:
 C#              F#m           E
-----------------------------------|
-----------------------------------|
-6-6-6-6-6-6-6-6-6-6-6-6-6-6-6-6-6-|
-6-6-6-6-6-6-6-6-4-4-4-4-4-4-4-2-2-|
-----------------------------------|
-----------------------------------|

But I think I like it

Chorus:
  D                       F#m      Gm
--2-2--2-2--2-2--2-2-2--------2----3-----------|
--3-3--3-3--3-3--3-3-3----------2--3-----------|
--2-2--2-2--2-2--2-2-2-------------3-----------|
----------------------------4------5-----------|
--------------------------4--------5-----------|
-----------------------------------3-----------|
When you instant message me
With a promise
I can feel it
I can tell you're gonna be
Just like me

Verse2:
palm muted
-----------------------R
-----------------------E
-6-6-6-6-6-6-6-6-6-6-6-P  however many
-8-8-8-8-8-8-8-8-8-8-8-E times requires
-----------------------A
-----------------------T
My eyes are gonna strain
My heart is feeling pain
At 50 beats per second

Pre chorus:
 C#              F#m           E
-----------------------------------|
-----------------------------------|
-6-6-6-6-6-6-6-6-6-6-6-6-6-6-6-6-6-|
-6-6-6-6-6-6-6-6-4-4-4-4-4-4-4-2-2-|
-----------------------------------|
-----------------------------------|
But I think I like it

Chorus:
  D                       F#m      Gm
--2-2--2-2--2-2--2-2-2--------2----3-----------|
--3-3--3-3--3-3--3-3-3----------2--3-----------|
--2-2--2-2--2-2--2-2-2-------------3-----------|
----------------------------4------5-----------|
--------------------------4--------5-----------|
-----------------------------------3-----------|
When you instant message me
With a promise
I can feel it
I can tell you're gonna be
Just like me

Outro:
Guitar (Trem Picking):
----------------------------------------------------|
---10-10-10-10-10-10-10-10-10-10-10-10-10-10-10-10--|
---9--9--9--9--9--9--9--9--9--9--9--9--9--9--9--9---|
----------------------------------------------------|
----------------------------------------------------|
----------------------------------------------------|

-------------------------------------------------------------------------------------------------|
--10-10-10-10-10-10-10-10-9--9--9--9--9--9--9--9--8--8--8--8--8--8--8--8--9--9--9--9--9--9--9--9-|
--9--9--9--9--9--9--9--9--9--9--9--9--9--9--9--9--9--9--9--9--9--9--9--9--9--9--9--9--9--9--9--9-|
-------------------------------------------------------------------------------------------------|
-------------------------------------------------------------------------------------------------|
-------------------------------------------------------------------------------------------------|

--------------R
--19-19-19-19-E
--------------P However mnay times
--------------E required
--------------A
--------------T

End on:
-----|
-19~-|
-----|
-----|
-----|
-----|
You tell
you tell
you turn on me


Go back to tablature