Panic Station (tablature)

MuseWiki, wiki for the band Muse
Jump to: navigation, search
Intro [As played on guitar]_________________

You won’t get much closer
Until you sacrifice it all
You won’t get to taste it
With your face against the wall
e||-----|-----------------------------------------------------------------------------------------------------|
B||-----|-----------------------------------------------------------------------------------------------------|
G||-----|-----------------------------------------------------------------------------------------------------| 
D||-----|-----------10/12~------------14-14-14-14------------10/12~------------14-14-14-14--------------------| x2
A||-----|-----------10/12~------------14-14-14-14------------10/12~------------14-14-14-14--------------------|
E||-12/-|---0-0-0---10/12~--0-0-0-0---12-12-12-12---0-0-0----10/12~--0-0-0-0---12-12-12-12--------------------|

Get up and commit
Show the power trapped within
Do just what you want to
Now stand up and begin
e||-----------------------------------------------------------------------|
B||-----------------------------------------------------------------------|
G||-----------------------------------------------------------------------| 
D||--7-7-7-6-5-----------14-14-14-14---------10/12~-----------------------|
A||--7-7-7-6-5-----------14-14-14-14---------10/12~-----------------------|
E||--5-5-5-4-3----3-3-3--12-12-12-12--0-0-0--10/12~--0-0-0---12/----------|



Chorus ____________________________________
[[Bass Chorus]]
Ooh 1, 2, 3, 4 fire's in your eyes
And this chaos it defies imagination
e||----------------------------------------------------------------------------|
B||----------------------------------------------------------------------------|
G||----------------------------------------------------------------------------| 
D||---2---2---2---3---4---4---4---5---6---6---6---8---9---9---9---11---12------|
A||----------------------------------------------------------------------------|
E||-0---0---0---2---3---3---3---4---5---5---5---7---8---8---8---10---11--------|
5, 6, 7, 8 minus 9 lives
You've arrived at panic station
e||----------------------------------------------------------------------------|
B||----------------------------------------------------------------------------|
G||----------------------------------------------------------------------------| 
D||---2---2---2---3---4---4---4---5---6---6---6---8----------------------------|
A||----------------------------------------------------------------------------|
E||-0---0---0---2---3---3---3---4---5---5---5---7---8--------------------------|

[[Guitar Chorus]]
5, 6, 7, 8 minus 9 lives
You've arrived at panic station
e||--12-12-12-12-12-12-12-12----10-10-10-10-10-10-10-10----9--9--9--9--9--9--9--9-------8-----|
B||--12-12-12-12-12-12-12-12----12-12-12-12-12-12-12-12----10-10-10-10-10-10-10-10------10----|
G||--12-12-12-12-12-12-12-12----12-12-12-12-12-12-12-12----9--9--9--9--9--9--9--9-------9-----| 
D||-------------------------------------------------------------------------------------------|
A||-------------------------------------------------------------------------------------------|
E||-------------------------------------------------------------------------------------------|



Solo Guitar_______________________________

Part1
e||--------------------------------------|
B||--------------------------------------|
G||--------------------------------------| 
D||--------------------------------------|x4
A||--------------------------------------|
E||-0-12-0-11-0-10-0-9-0-8-0-7-0-6-7-0---|

e||--------------------------------------|
B||--------------------------------------|
G||--------------------------------------| 
D||--------------------------------------|Just only one and repeat the part of above 
A||--------------------------------------|
E||-0-11-0-10-0-9-0-8-0-7-0-6-0-5-6-0----|

Solo Part 2

Oh....Oh.... Uh.... Uh!.....
Ooh 1, 2, 3, 4 fire's in your eyes
And this chaos it defies imagination
5, 6, 7, 8 minus 9 lives
You've arrived at panic station
Ooh 1, 2, 3, 4 fire's in your eyes,
And this chaos it defies imagination.
5, 6, 7, 8 minus 9 lives
And I know you will fight for the duration
e||-7-7------------7-----7-7-----------7----9-9-------------9---8-8-------------8-----|
B||-----8--------8-----------8-------8----------10-------10---------8---------8-------|
G||-------9---9----------------7---7---------------9----9--------------9----9---------| 
D||---------9--------------------9-------------------11------------------10-----------| x3 or 4 and then...
A||-----------------------------------------------------------------------------------|
E||-----------------------------------------------------------------------------------|

Ooh 1, 2, 3, 4 fire's in your eyes
And you know I'm not resisting your temptations
5, 6, 7, 8 minus 9 lives
You've arrived at panic station
e||-8~-10~-|-12~----7-10~---7-9~----7-8~-7~----|
B||--------|-----------------------------------|
G||--------|-----------------------------------| 
D||--------|-----------------------------------| x2
A||--------|-----------------------------------|
E||--------|-----------------------------------|


Outro________________________________________

e||-----------------------------------------------------------------------------------------------------|
B||-----------------------------------------------------------------------------------------------------|
G||-----------------------------------------------------------------------------------------------------| 
D||-----------10/12~------------14-14-14-14------------10/12~------------14-14-14-14--------------------| 
A||-----------10/12~------------14-14-14-14------------10/12~------------14-14-14-14--------------------|
E||---0-0-0---10/12~--0-0-0-0---12-12-12-12---0-0-0----10/12~--0-0-0-0---12-12-12-12--------------------|


Tabbed by Nepomuse [Ernesto]


Go back to tablature