Overdue (tablature)

MuseWiki, wiki for the band Muse
Jump to: navigation, search
standard tuning      xs-scrape with pick      hb~-half bend
                      x- finger mute

intro
|-0----0---—0—0—0—0—0--0—0—0---------------------|--------------------------------|
|-2---—2---—3—3—3—3—1--0—0—2---------------------|--------------------------------|
|-0---—0---—0—0—0—0—0--0—0-0---------------------|------use wah effect here-------|
|-2---—2---—2—2—2—2—2--2—2—2---------------------|--------------------------------|
|------------------------------------------------|--------------------------------|
|------------------------------------------------|--------------------------------|

 main riff
|----------------------------------------------------------------|----------------x—x-------|
|----------------------------------------------------------------|----------------x—x-------|
|---------------------------7---7---7-----5-----------6----------|----------------x—x-------|
|----------------------7-----------------------------------------|----------------x—x-------|
|----------------------7----5---5---5-----3---0----0—-4----------|----------------x—x-------|
|-xs-xs-xs-xs----------5----------------------0----0-------------|---------0------x—x-------|

lots of distortion here

|----------------------------------------------------------------|-----------------------------|
|----------------------------------------------------------------|------------0---0------------|
|---------------------------7---7---7-----5-----------6----------|-------6----0---0-----6hb~~~~|
|----------------------7-----------------------------------------|------------0---0------------|
|----------------------7----5---5---5-----3----0----0—4----------|-------4---------------------|
|-xs—xs—xs—xs—---------5-----------------------0----0------------|-----------------------------|


|-------------------------------------------------------------|----------------x—x-------|
|-------------------------------------------------------------|----------------x—x-------|
|------------------------7---7---7-----5--------------6-------|----------------x—x-------|
|-------------------7-----------------------------------------|----------------x—x-------|
|-------------------7----5---5---5-----3-------0----0-4-------|----------------x—x-------|
|-xs—xs—xs—xs------—5--------------------------0----0---------|---------0------x—x-------|


|--------------------------------------------------------------|
|----------------------------------------0---0----3------------|
|---------------------7---7---7-----5----0---0----2------------|
|------------------7---------------------0---0----0------------|
|------------------7--5---5---5-----3--------------------------|
|------------------5-------------------------------------------|


verse
|------------------------------------------------------------------|
|--------------------------------------------1---------------------|
|----------------------------2-------------------------------------|       do this twice
|---------------------3--------------3-----------------------------|
|------------------------------------------------------------------|
|------------------------------------------------------------------|


|------------------------------------------------------------------|
|----------------------1-------------------------------------------|
|------------2-------------2---------2-----------------------------|
|--------3-------3--------------3----------------------------------|
|------------------------------------------------------------------|
|------------------------------------------------------------------|


|---------------------------------------------------------------------|
|-----------------------1---------------------------------------------|
|------------2--------------2--------2--------------------------------|
|--------2-------2--------------2-------------------------------------|
|---------------------------------------------------------------------|
|---------------------------------------------------------------------|


|------------------------------------------------------------------------|
|------------x----5-----5----3----------x----1---------------------------|
|------------x----5-----5----4----------x----2---------------------------|
|------------x----7-----6----5----------x----4---------------------------|
|------------------------------------------------------------------------|
|-----0------------------------------0-----------------------------------|


|------------------------------------------------------------------|
|----------------------1-------------------------------------------|
|------------2-------------2---------2-----------------------------|
|--------3-------3--------------3----------------------------------|
|------------------------------------------------------------------|
|------------------------------------------------------------------|


|---------------------------------------------------------------------|
|-----------------------1---------------------------------------------|
|------------2--------------2--------2--------------------------------|
|--------2-------2--------------2-------------------------------------|
|---------------------------------------------------------------------|
|---------------------------------------------------------------------|


|----------------------1-------------------------------------------|
|----------------------1---------------------1---------------------|
|------------2-------------2---------2-----------------------------|
|--------3-------3--------------3----------------------------------|
|------------------------------------------------------------------|
|------------------------------------------------------------------|


|-----------------------0----0------------|
|-----5----5----5-------1----1------------|
|-----5----5----4-------2----2------------| lost of distortion here
|-----7----6----5-------4----4------------|
|-----------------------------------------|
|-----------------------------------------|

build up to chorus
|-------------------------------------------------------------------|--------------------------------|
|--1----1----x---x-----1-------1-------1----------------------------|--1---x--1---1---1-----0----0---|
|--2----2----x---x-----2-------2-------2----------------------------|--2---x--2---2---2-----0----0---|
|--2----2----x---x-----2-------2-------2----------------------------|--2---x--2---2---2-----0----0---|
|------------x---x--------------------------------------------------|------x-------------------------|
|--1----1----x---x-----1-------1-------1------xs----xs-----xs----xs-|--1---x--1---1---1-----1----1---|


|-0---0---0---0---0---0---0---0--|-0---0---0---0---0---0----0-0-0-0-0-0---|
|-0---0---0---0---0---0---0---0--|-0---0---0---0---0---0----0-0-0-0-0-0---|
|-2---2---2---2---2---2---2---2--|-1---1---1---1---1---1----1-1-1-1-1-1---|
|-2---2---2---2---2---2---2---2--|-2---2---2---2---2---2----2-2-2-2-2-2---|
|-2---2---2---2---2---2---2---2--|-2---2---2---2---2---2----2-2-2-2-2-2---|
|-0---0---0---0---0---0---0---0--|-0---0---0---0---0---0----1-1-1-1-1-1---|

chorus

|-----0-------0---0----3---3------x-----------|----------------------|
|-----2-------2---2----3---3------x------3----|------------3------3--|
|-----2-------2---2----0---0------x------2----|------------2------2--|     repeat 3 times
|-----2-------2---2----0---0------x------0----|------------0------0--|
|-----0-------0---0---------------x------0----|------------0------0--|
|----------------------3---3------x-----------|----------------------|

Do verse and chorus again

then,


|-12-12-12-12-12-12-----------15-15-15-15-15-15-14-14-------14-14-14-14-14-14-12-12--|
|-14-14-14-14-14-14-----------15-15-15-15-15-15-15-15-------15-15-15-15-15-15-14-14--|
|---------------------14-14----------------------------------------------------------|
|---------------------14-14----------------------------------------------------------|
this a few times
|------------------------------------------------------------------------------------|(six,i think)in
|------------------------------------------------------------------------------------|  final chorus

end with
|-----0-------0---0----3---3------x----------|
|-----2-------2---2----3---3------x------3---|
|-----2-------2---2----0---0------x------2---|
|-----2-------2---2----0---0------x------0---|
|-----0-------0---0---------------x------0---|
|----------------------3---3------x----------|


Go back to tablature