Megalomania (tablature)

MuseWiki, wiki for the band Muse
Jump to: navigation, search

BASS TAB

Album: Origin of Symmetry 
First tabbed by: Erik Kijk in de Vegte 
Submitted by: Sebastian Skarpaas 

Intro
G|-------------|
D|-------------|   4x
A|-7----7------|
E|--------7--7-|

Verse 1
G|--------------|--------------|--------------|--------------| |
D|--------------|--------------|--------------|-7----7--9--9-| |	
A|-7----7-------|-7----7-------|-7----7--9--9-|--------------| |
E|--------7--7--|--------7--7--|--------------|--------------| |
	                                                      | 2x
G|--------------|--------------|--------------|--------------| |         |-----------|
D|--------------|--------------|--------------|--------------| |         |-----------|	
A|-7----7-------|--------------|--------------|--------------| |         |---7-------|
E|--------8--8--|-7----7-5--5--|-3----3--4--4-|-5----5--7--7-| |    then |-----------|
  
Chorus
G|--------------|------------------|------------------|-----------------|------------------|
D|--------------|------------------|------------------|-----------------|------------------|	
A|--2-----------|-3-3-3-3--0-0-0-0-|-5-5-5-5--5-5-5-5-|-2-2-2-2---------|-3-3-3-3-3-3-3-3-3|
E|--------------|------------------|------------------|---------3-3-3-3-|------------------|

G|------------------|------------------|--------------|--------------|
D|------------------|------------------|--------------|--------------|	
A|-3-3-3-3--2-2-2-2-|-0-0-0-0--0-0-0-0-|-2--2--2--2---|-2--2--2--2---|
E|------------------|------------------|--------------|--------------|

PreVerse
G|-------------|
D|-------------|   4x
A|-7----7------|
E|--------7--7-|

Verse 2
G|--------------|--------------|--------------|--------------|  
D|--------------|--------------|--------------|-7----7--9--9-|  	
A|-7----7-------|-7----7-------|-7----7--9--9-|--------------|  
E|--------7--7--|--------7--7--|--------------|--------------|  
	      
G|--------------|--------------|--------------|--------------|                         
D|--------------|--------------|--------------|--------------|                         
A|-7----7-------|--------------|--------------|--------------|                        
E|--------8--8--|-7----7-5--5--|-3----3--4--4-|-5----5--7--7-|                        

Verse 3
G|--------------|--------------|--------------|--------------| 
D|--------------|--------------|--------------|-7----7--9--9-| 
A|-7----7-------|-7----7-------|-7----7--9--9-|--------------| 
E|--------7--7--|--------7--7--|--------------|--------------| 
	      
G|--------------|--------------|--------------|--------------|                        
D|--------6--6--|-5----5-6--6--|-7-----7-9--9-|--------------|                       
A|-7----7-------|--------------|--------------|-7------------|                       
E|--------------|--------------|--------------|--------------| 

Repeat Chorus

Outro
G|------------------|------------------|		 G|-------------|-------------|
D|------------------|------------------|   4 x           D|-------------|-------------|
A|------------4-4-4-|-5-5-5-5--5-5-5-5-|		 A|-------------|-------------|
E|-2-2-2-2--2-------|------------------|		 E|--2----------|--2----------|

Back to Tablature