Map of Your Head (tablature)

MuseWiki, wiki for the band Muse
Jump to: navigation, search
Everyone got the intro high part wrong so i fixed it 
to sound just like the song itself.


Standard Tuning

Verse/Chorus:
                    
e|----9--9------------5-5-7--------|
B|----10---10---10----7-6----------|
G|----9-------9-------7-7----------|
D|----11------------0--------------|
A|--0------------------------------|
E|---------------------------------|

   
e|----9--9-------------0--0----------2--2-----------5-5-7----|
B|----10---10---10-----0----0---0----2----2---------7-6------|
G|----9-------9--------1------1------2------2-------7-7------|
D|----11---------------2-------------4--------4---0----------|
A|--0------------------2-------------4-----------------------|
E|-------------------0-------------2-------------------------|

Back to Tablature