Isolated System (tablature)

MuseWiki, wiki for the band Muse
Jump to: navigation, search

Listen to the song for the rhythm.


Right Hand :

E |----15~-----------------------|
B |--------------15~-------------|
G |--12--12-12-12---12-12-12-12--|
D |------------------------------|
A |------------------------------|
E |------------------------------| Repeat

E |----15--13--------------------------|
B |------------16--15--13--16--15--13--|
G |--12--12--12--12--12--12--12--12----|
D |------------------------------------|
A |------------------------------------|
E |------------------------------------|Repeat

Left Hand :                                                                           
                                                                                  -x2-
E |---------------------------| |-----------------------------------| |---------------------------|
B |---------------------------| |-----------------------------------| |---------------------------|
G |----7--7--7--7--7--7--7--7-| |----7---7---7---7---7---7---7---7--| |----7--7--7--7--7--7--7--7-|
D |--8--8--8--8--8--8--8--8---| |--10--10--10--10--10--10--10--10---| |--5--5--5--5--5--5--5--5---|
A |---------------------------| |-----------------------------------| |---------------------------|
E |---------------------------| |-----------------------------------| |---------------------------|

Until ~ 1:50
Then after 2:00
                                                                                                                                                                                     -x2-
E |---------------------------| |-----------------------------------| |---------------------------|
B |---------------------------| |-----------------------------------| |---------------------------|
G |----7--7--7--7--7--7--7--7-| |----7---7---7---7---7---7---7---7--| |----7--7--7--7--7--7--7--7-|
D |--8--8--8--8--8--8--8--8---| |--10--10--10--10--10--10--10--10---| |--9--9--9--9--9--9--9--9---|
A |---------------------------| |-----------------------------------| |---------------------------|
E |---------------------------| |-----------------------------------| |---------------------------|

x2

Then : 2:30

E |---------------------------| |---------------------------| |----------------------------------|
B |---------------------------| |---------------------------| |----------------------------------|
G |----7--7--7--7--7--7--7--7-| |---7--7--7--7--7--7--7--7--| |----8---8---8---8---8---8---8---8-|
D |--8--8--8--8--8--8--8--8---| |--9--9--9--9--9--9--9--9---| |--10--10--10--10--10--10--10--10--|
A |---------------------------| |---------------------------| |----------------------------------|
E |---------------------------| |---------------------------| |----------------------------------|

E |----------------------------------|
B |----------------------------------|
G |----8---8---8---8---8---8---8---8-|
D |--12--12--12--12--12--12--12--12--|
A |----------------------------------|
E |----------------------------------|

And that's it for the rest of the song, feel free to correct any mistake.



Go back to tablature