I Belong to You (tablature)

MuseWiki, wiki for the band Muse
(Redirected from I Belong To You (tablature))
Jump to: navigation, search

Chords (suitable for Guitar or Piano) based on http://www.ultimate-guitar.com/tabs/m/muse/i_belong_to_you_crd.htm - tabbed by MatisyahuFan, improved, added to MuseWiki by Taylor and edited by Adam

Piano Tab tabbed, added and edited by Adam

Chords

Muse Tab
Name I Belong to You
Length 05:39
Tuning N/A
Tempo ♩ = 108
Timing 4/4
Intro:
Fm Cm x3
D Eb D Eb

Woow! Hmmmm


Fm         Cm
When these pillars get pulled down
Fm         Cm
It will be you who wears the crown
Fm           Cm                       D
And I'll owe everything to you
Eb       D              Eb   
Whooaaa oooh whoaa oh

Fm       Cm   
How much pain has cracked your soul?
Fm       Cm
How much love would make you whole?
Fm        Cm                 D      Gm/Bb
You're my guiding lightning strike
        Eb                 Bb                D   Gm/Bb
I can't find the words to say, they're overdue
           Eb                 Bb                D
I'd travel half the world to say "I belong to you"
Eb       D    Eb
Whooaaa oooh whoaa oh

Fm       Cm   
And she attacks me like a Leo
Fm       Cm   
When my heart is split like Rio
Fm        Cm                 D      Gm/Bb
And I assure you my debts are real
        Eb                 Bb                D   Gm/Bb
I can't find the words to say When I'm confused
           Eb                 Bb                D
I travel half the world to say "You are my mu..."
Eb       D    Eb
Whooaaa oooh whoaa oh

French Section
Piano Arpeggios over the following chords:

D   D          Gdim*         A
Ah! Réponds, réponds à ma tendresse 
D     D          Em      Gdim/Bb
Verse-moi, verse-moi l'ivresse
A7/C#            F#7/A#
Réponds à ma tendresse
Bm           A7/C#
Réponds à ma tendresse
D    Bm           Em      A7
Ahhhhhhhhhh verse-moi l'ivresse
D    D/F#    Gdim/Bb    A7
           Ahhhhhhhhhhhhhhhh
D    D/F#          Em/B     Gdim/Bb   
Ve - rse-moi, verse-moi l'ivresse
A7/C#            F#7/A#
Réponds à ma tendresse
Bm           A7/C#
Réponds à ma tendresse
D  Daug    Bm    
Ahhhhhhhhhhhhhhhh
      Em     A7       
verse-moi l'ivresse
D/F#     Bm
I Belong... I Belong
Em    D
To You
Eb       D   Eb
Whooaaa oooh "...use!"
Behind the clarinet solo:

Fm Cm x3
D Gm/Bb Eb Bb 

Repeat verse/chorus chords.

Piano

Muse Tab
Name I Belong to You (+ Mon Coeur S'ouvre Á Ta Voix)
Length 05:39
Tuning DDADGBE (Tabbed for Piano)
Tempo ♩ = 108
Timing 4/4
 

== Intro: ==

   E  E  E  E  E  E  E  E    E  E  E  E  E  E  E  E    E  E  E  E  E  E  E  E    E  E  E  E  E  E  E  E
E|-------------------------|-------------------------|-------------------------|-------------------------|
B|-1--1--1--1--1--1--1--1--|-1--1--1--1--1--1--1--1--|-1--1--1--1--1--1--1--1--|-1--1--1--1--1--1--1--1--|
G|-1--1--1--1--1--1--1--1--|-0--0--0--0--0--0--0--0--|-1--1--1--1--1--1--1--1--|-0--0--0--0--0--0--0--0--|
D|-3--3--3--3--3--3--3--3--|-1--1--1--1--1--1--1--1--|-3--3--3--3--3--3--3--3--|-1--1--1--1--1--1--1--1--|
A|-------------------------|-------------------------|-------------------------|-------------------------|
D|-3--3--6--6--10-10-15-15-|-13-13-10-10-5--5--1--1--|-3--3--6--6--10-10-15-15-|-13-13-10-10-5--5--1--1--|
D|-3--3--6--6--10-10-15-15-|-13-13-10-10-5--5--1--1--|-3--3--6--6--10-10-15-15-|-13-13-10-10-5--5--1--1--|

   E  E  E  E  E  E  E  E    E  E  E  E  E  E  E  E    Q     E  E  E  E  E  E    E  E  E  E  E  E  E  E
E|-------------------------|-------------------------|-------14-14-10-10-5--5--|-------3--3--8--8--7--8--|
B|-1--1--1--1--1--1--1--1--|-1--1--1--1--1--1--1--1--|-3-----15-15-10-10-7--7--|-4--4--4--4--8--8--------|
G|-1--1--1--1--1--1--1--1--|-0--0--0--0--0--0--0--0--|-2-----14-14-11-11-7--7--|-5--5--5--5--8--8--4--5--|
D|-3--3--3--3--3--3--3--3--|-1--1--1--1--1--1--1--1--|-4-----------------------|-5--5--------------------|
A|-------------------------|-------------------------|-5-----------------------|-------------------------|
D|-3--3--6--6--10-10-15-15-|-13-13-10-10-5--5--1--1--|-0-----------------------|-1--1--5--5--10-10-------|
D|-3--3--6--6--10-10-15-15-|-13-13-10-10-5--5--1--1--|-0-----------------------|-1--1--5--5--10-10-9--10-|

   E  E  E  E  E  E  E  E    E  E  E  E  E  Glissando
E|-14-14-10-10-5--5--------|-3--3--8--8--8--29-------|
B|-15-15-10-10-7--7--4--4--|-4--4--8--8--8----\------|
G|-14-14-11-11-7--7--5--5--|-5--5--8--8--8-----\-----|
D|-------------------5--5--|--------------------\----|
A|-------------------------|---------------------\19-|
D|-12----------------1--1--|-5--5--10-10-10----------|
D|-12----------------1--1--|-5--5--10-10-10----------|



== Verse: ==

   E  E  E  E  E  E  E  E    E  E  E  E  E  E  E  E    E  E  E  E  E  E  E  E    E  E  E  E  E  E  E  E
E|-------------------------|-------------------------|-------------------------|-------------------------|
B|-1--1--1--1--1--1--1--1--|-1--1--1--1--1--1--1--1--|-1--1--1--1--1--1--1--1--|-1--1--1--1--1--1--1--1--|
G|-1--1--1--1--1--1--1--1--|-0--0--0--0--0--0--0--0--|-1--1--1--1--1--1--1--1--|-0--0--0--0--0--0--0--0--|
D|-3--3--3--3--3--3--3--3--|-1--1--1--1--1--1--1--1--|-3--3--3--3--3--3--3--3--|-1--1--1--1--1--1--1--1--|
A|-------------------------|-------------------------|-------------------------|-------------------------|
D|-3--3--6--6--10-10-15-15-|-13-13-10-10-5--5--1--1--|-3--3--6--6--10-10-15-15-|-13-13-10-10-5--5--1--1--|
D|-3--3--6--6--10-10-15-15-|-13-13-10-10-5--5--1--1--|-3--3--6--6--10-10-15-15-|-13-13-10-10-5--5--1--1--|
   _  _  _  _  .  .  .  .    _  _  _  _  .  .  .  .    _  _  _  _  .  .  .  .    _  _  _  _  .  .  .  .  
 
   E  E  E  E  E  E  E  E    E  E  E  E  E  E  E  E
E|-------------------------|-------------------------|
B|-1--1--1--1--1--1--1--1--|-1--1--1--1--1--1--1--1--|
G|-1--1--1--1--1--1--1--1--|-0--0--0--0--0--0--0--0--|
D|-3--3--3--3--3--3--3--3--|-1--1--1--1--1--1--1--1--|
A|-------------------------|-------------------------|
D|-3--3--6--6--10-10-15-15-|-13-13-10-10-5--5--1--1--|
D|-3--3--6--6--10-10-15-15-|-13-13-10-10-5--5--1--1--|
   _  _  _  _  .  .  .  .    _  _  _  _  .  .  .  .


== Break: ==

   Q     E  E  E  E  E  E    E  E  E  E  E  E  E  E    E  E  E  E  E  E  E  E    E  E  E  E  E     Slide
E|-------14-14-10-10-5--5--|-------3--3--8--8--7--8--|-14-14-10-10-5--5--------|-3--3--8--8--8--29-------|
B|-3-----15-15-10-10-7--7--|-4--4--4--4--8--8--------|-15-15-10-10-7--7--4--4--|-4--4--8--8--8----\------|
G|-2-----14-14-11-11-7--7--|-5--5--5--5--8--8--4--5--|-14-14-11-11-7--7--5--5--|-5--5--8--8--8-----\-----|
D|-4-----------------------|-5--5--------------------|-------------------5--5--|--------------------\----|
A|-5-----------------------|-------------------------|-------------------------|---------------------\19-|
D|-0-----------------------|-1--1--5--5--10-10-------|-12----------------1--1--|-5--5--10-10-10----------|
D|-0-----------------------|-1--1--5--5--10-10-9--10-|-12----------------1--1--|-5--5--10-10-10----------|


== Verse: ==

   E  E  E  E  E  E  E  E    E  E  E  E  E  E  E  E    E  E  E  E  E  E  E  E    E  E  E  E  E  E  E  E
E|-------------------------|-------------------------|-------------------------|-------------------------|
B|-1--1--1--1--1--1--1--1--|-1--1--1--1--1--1--1--1--|-1--1--1--1--1--1--1--1--|-1--1--1--1--1--1--1--1--|
G|-1--1--1--1--1--1--1--1--|-0--0--0--0--0--0--0--0--|-1--1--1--1--1--1--1--1--|-0--0--0--0--0--0--0--0--|
D|-3--3--3--3--3--3--3--3--|-1--1--1--1--1--1--1--1--|-3--3--3--3--3--3--3--3--|-1--1--1--1--1--1--1--1--|
A|-------------------------|-------------------------|-------------------------|-------------------------|
D|-3--3--6--6--10-10-15-15-|-13-13-10-10-5--5--1--1--|-3--3--6--6--10-10-15-15-|-13-13-10-10-5--5--1--1--|
D|-3--3--6--6--10-10-15-15-|-13-13-10-10-5--5--1--1--|-3--3--6--6--10-10-15-15-|-13-13-10-10-5--5--1--1--|
   _  _  _  _  .  .  .  .    _  _  _  _  .  .  .  .    _  _  _  _  .  .  .  .    _  _  _  _  .  .  .  .  
 
   E  E  E  E  E  E  E  E    E  E  E  E  E  E  E  E
E|-------------------------|-------------------------|
B|-1--1--1--1--1--1--1--1--|-1--1--1--1--1--1--1--1--|
G|-1--1--1--1--1--1--1--1--|-0--0--0--0--0--0--0--0--|
D|-3--3--3--3--3--3--3--3--|-1--1--1--1--1--1--1--1--|
A|-------------------------|-------------------------|
D|-3--3--6--6--10-10-15-15-|-13-13-10-10-5--5--1--1--|
D|-3--3--6--6--10-10-15-15-|-13-13-10-10-5--5--1--1--|
   _  _  _  _  .  .  .  .    _  _  _  _  .  .  .  .


== Chorus: ==

   E  E  E  E  E  E  E  E    E  E  E  E  E  E  E  E    E  E  E  E  E  E  E  E    E  E  E  E  E  E  E  E
E|-------------------------|-------------------------|-------------------------|-------------------------|
B|-------------3--3--3--3--|-3--3--3--3--3--3--3--3--|-4--4--4--4--4--4--4--4--|-3--3--3--3--3--3--3--3--|
G|-2--2--2--2--2--2--2--2--|-3--3--3--3--3--3--3--3--|-3--3--3--3--3--3--3--3--|-3--3--3--3--3--3--3--3--|
D|-4--4--4--4--4--4--4--4--|-5--5--5--5--5--5--5--5--|-5--5--5--5--5--5--5--5--|-3--3--3--3--3--3--3--3--| x 2
A|-5--5--5--5--5--5--5--5--|-5--5--5--5--5--5--5--5--|-6--6--6--6--6--6--6--6--|-5--5--5--5--5--5--5--5--|
D|-0--0--7--7--12-12-19-19-|-20-20-17-17-12-12-8--8--|-1--1--8--8--13-13-20-20-|-20-20-15-15-12-12-8--8--|
D|-0--0--7--7--12-12-19-19-|-20-20-17-17-12-12-8--8--|-1--1--8--8--13-13-20-20-|-20-20-15-15-12-12-8--8--|


== Break: ==

   Q     E  E  E  E  E  E    E  E  E  E  E  E  E  E    E  E  E  E  E  E  E  E    E  E  E  E  E     Slide
E|-------14-14-10-10-5--5--|-------3--3--8--8--7--8--|-14-14-10-10-5--5--------|-3--3--8--8--8--29-------|
B|-3-----15-15-10-10-7--7--|-4--4--4--4--8--8--------|-15-15-10-10-7--7--4--4--|-4--4--8--8--8----\------|
G|-2-----14-14-11-11-7--7--|-5--5--5--5--8--8--4--5--|-14-14-11-11-7--7--5--5--|-5--5--8--8--8-----\-----|
D|-4-----------------------|-5--5--------------------|-------------------5--5--|--------------------\----|
A|-5-----------------------|-------------------------|-------------------------|---------------------\19-|
D|-0-----------------------|-1--1--5--5--10-10-------|-12----------------1--1--|-5--5--10-10-10----------|
D|-0-----------------------|-1--1--5--5--10-10-9--10-|-12----------------1--1--|-5--5--10-10-10----------|

Verse:

   E  E  E  E  E  E  E  E    E  E  E  E  E  E  E  E    E  E  E  E  E  E  E  E    E  E  E  E  E  E  E  E
E|-------------------------|-------------------------|-------------------------|-------------------------|
B|-1--1--1--1--1--1--1--1--|-1--1--1--1--1--1--1--1--|-1--1--1--1--1--1--1--1--|-1--1--1--1--1--1--1--1--|
G|-1--1--1--1--1--1--1--1--|-0--0--0--0--0--0--0--0--|-1--1--1--1--1--1--1--1--|-0--0--0--0--0--0--0--0--|
D|-3--3--3--3--3--3--3--3--|-1--1--1--1--1--1--1--1--|-3--3--3--3--3--3--3--3--|-1--1--1--1--1--1--1--1--|
A|-------------------------|-------------------------|-------------------------|-------------------------|
D|-3--3--6--6--10-10-15-15-|-13-13-10-10-5--5--1--1--|-3--3--6--6--10-10-15-15-|-13-13-10-10-5--5--1--1--|
D|-3--3--6--6--10-10-15-15-|-13-13-10-10-5--5--1--1--|-3--3--6--6--10-10-15-15-|-13-13-10-10-5--5--1--1--|
   _  _  _  _  .  .  .  .    _  _  _  _  .  .  .  .    _  _  _  _  .  .  .  .    _  _  _  _  .  .  .  .  
 
   E  E  E  E  E  E  E  E    E  E  E  E  E  E  E  E
E|-------------------------|-------------------------|
B|-1--1--1--1--1--1--1--1--|-1--1--1--1--1--1--1--1--|
G|-1--1--1--1--1--1--1--1--|-0--0--0--0--0--0--0--0--|
D|-3--3--3--3--3--3--3--3--|-1--1--1--1--1--1--1--1--|
A|-------------------------|-------------------------|
D|-3--3--6--6--10-10-15-15-|-13-13-10-10-5--5--1--1--|
D|-3--3--6--6--10-10-15-15-|-13-13-10-10-5--5--1--1--|
   _  _  _  _  .  .  .  .    _  _  _  _  .  .  .  .


== Chorus: ==

   E  E  E  E  E  E  E  E    E  E  E  E  E  E  E  E    E  E  E  E  E  E  E  E    E  E  E  E  E  E  E  E
E|-------------------------|-------------------------|-------------------------|-------------------------|
B|-------------3--3--3--3--|-3--3--3--3--3--3--3--3--|-4--4--4--4--4--4--4--4--|-3--3--3--3--3--3--3--3--|
G|-2--2--2--2--2--2--2--2--|-3--3--3--3--3--3--3--3--|-3--3--3--3--3--3--3--3--|-3--3--3--3--3--3--3--3--|
D|-4--4--4--4--4--4--4--4--|-5--5--5--5--5--5--5--5--|-5--5--5--5--5--5--5--5--|-3--3--3--3--3--3--3--3--| x 2
A|-5--5--5--5--5--5--5--5--|-5--5--5--5--5--5--5--5--|-6--6--6--6--6--6--6--6--|-5--5--5--5--5--5--5--5--|
D|-0--0--7--7--12-12-19-19-|-20-20-17-17-12-12-8--8--|-1--1--8--8--13-13-20-20-|-20-20-15-15-12-12-8--8--|
D|-0--0--7--7--12-12-19-19-|-20-20-17-17-12-12-8--8--|-1--1--8--8--13-13-20-20-|-20-20-15-15-12-12-8--8--|


== Break: ==
                                                                                 rit.---------------------|

   Q     E  E  E  E  E  E    E  E  E  E  E  E  E  E    E  E  E  E  E  E  E  E    E  E  E  E  E  E  E  E
E|-------14-14-10-10-5--5--|-------3--3--8--8--7--8--|-14-14-10-10-5--5--------|-3--3--8--8--11-11-15-15--|
B|-3-----15-15-10-10-7--7--|-4--4--4--4--8--8--------|-15-15-10-10-7--7--4--4--|-4--4--8--8--13-13-16-16--|
G|-2-----14-14-11-11-7--7--|-5--5--5--5--8--8--4--5--|-14-14-11-11-7--7--5--5--|-5--5--8--8--12-12-16-17--|
D|-4-----------------------|-5--5--------------------|-------------------5--5--|--------------------------|
A|-5-----------------------|-------------------------|-------------------------|--------------------------|
D|-0-----------------------|-1--1--5--5--10-10-9--10-|-12----------------1--1--|-5--5--10-10-10-10-9--10--|
D|-0-----------------------|-1--1--5--5--10-10-9--10-|-12----------------1--1--|-5--5--10-10-10-10-9--10--|
                                                                                                
    S S S S S S S S S S S S S S S S S  E   E  E
E|-14------------------------------10-14--14--14--|
B|-15------------------------10--10---------------|
G|-14------------------11--11--11-----------------|
D|---------------12--12--12-----------------------|
A|---------12--12--12-----------------------------|
D|-12-12-16--16-----------------------------------|
D|-12---------------------------------------------|
     '-12-' '-12-''-12-''-12''-12-''-12-'

Mon Coeur S'ouvre Á Ta Voix

(Tab to come shortly)

I Belong To You


== Break: ==
 
       accel.-----------------| ♩ = 108

   Q     E  E  E  E  E  E    E  E  E  E  E  E  E  E    E  E  E  E  E  E  E  E    E  E  E  E  E     Slide
E|-------14-14-10-10-5--5--|-------3--3--8--8--7--8--|-14-14-10-10-5--5--------|-3--3--8--8--8--29-------|
B|-3-----15-15-10-10-7--7--|-4--4--4--4--8--8--------|-15-15-10-10-7--7--4--4--|-4--4--8--8--8----\------|
G|-2-----14-14-11-11-7--7--|-5--5--5--5--8--8--4--5--|-14-14-11-11-7--7--5--5--|-5--5--8--8--8-----\-----|
D|-4-----------------------|-5--5--------------------|-------------------5--5--|--------------------\----|
A|-5-----------------------|-------------------------|-------------------------|---------------------\19-|
D|-0-----------------------|-1--1--5--5--10-10-------|-12----------------1--1--|-5--5--10-10-10----------|
D|-0-----------------------|-1--1--5--5--10-10-9--10-|-12----------------1--1--|-5--5--10-10-10----------|


== Solo: ==

   E  E  E  E  E  E  E  E    E  E  E  E  E  E  E  E    E  E  E  E  E  E  E  E    E  E  E  E  E  E  E  E
E|-------------------------|-------------------------|-------------------------|-------------------------|
B|-1--1--1--1--1--1--1--1--|-1--1--1--1--1--1--1--1--|-1--1--1--1--1--1--1--1--|-1--1--1--1--1--1--1--1--|
G|-1--1--1--1--1--1--1--1--|-0--0--0--0--0--0--0--0--|-1--1--1--1--1--1--1--1--|-0--0--0--0--0--0--0--0--|
D|-3--3--3--3--3--3--3--3--|-1--1--1--1--1--1--1--1--|-3--3--3--3--3--3--3--3--|-1--1--1--1--1--1--1--1--|
A|-------------------------|-------------------------|-------------------------|-------------------------|
D|-3--3--6--6--10-10-15-15-|-13-13-10-10-5--5--1--1--|-3--3--6--6--10-10-15-15-|-13-13-10-10-5--5--1--1--|
D|-3--3--6--6--10-10-15-15-|-13-13-10-10-5--5--1--1--|-3--3--6--6--10-10-15-15-|-13-13-10-10-5--5--1--1--|
   _  _  _  _  .  .  .  .    _  _  _  _  .  .  .  .    _  _  _  _  .  .  .  .    _  _  _  _  .  .  .  .  
 
   E  E  E  E  E  E  E  E    E  E  E  E  E  E  E  E
E|-------------------------|-------------------------|
B|-1--1--1--1--1--1--1--1--|-1--1--1--1--1--1--1--1--|
G|-1--1--1--1--1--1--1--1--|-0--0--0--0--0--0--0--0--|
D|-3--3--3--3--3--3--3--3--|-1--1--1--1--1--1--1--1--|
A|-------------------------|-------------------------|
D|-3--3--6--6--10-10-15-15-|-13-13-10-10-5--5--1--1--|
D|-3--3--6--6--10-10-15-15-|-13-13-10-10-5--5--1--1--|
   _  _  _  _  .  .  .  .    _  _  _  _  .  .  .  .

   E  E  E  E  E  E  E  E    E  E  E  E  E  E  E  E    E  E  E  E  E  E  E  E    E  E  E  E  E  E  E  E
E|-------------------------|-------------------------|-------------------------|-------------------------|
B|-------------3--3--3--3--|-3--3--3--3--3--3--3--3--|-4--4--4--4--4--4--4--4--|-3--3--3--3--3--3--3--3--|
G|-2--2--2--2--2--2--2--2--|-3--3--3--3--3--3--3--3--|-3--3--3--3--3--3--3--3--|-3--3--3--3--3--3--3--3--|
D|-4--4--4--4--4--4--4--4--|-5--5--5--5--5--5--5--5--|-5--5--5--5--5--5--5--5--|-3--3--3--3--3--3--3--3--|
A|-5--5--5--5--5--5--5--5--|-5--5--5--5--5--5--5--5--|-6--6--6--6--6--6--6--6--|-5--5--5--5--5--5--5--5--|
D|-0--0--7--7--12-12-19-19-|-20-20-17-17-12-12-8--8--|-1--1--8--8--13-13-20-20-|-20-20-15-15-12-12-8--8--|
D|-0--0--7--7--12-12-19-19-|-20-20-17-17-12-12-8--8--|-1--1--8--8--13-13-20-20-|-20-20-15-15-12-12-8--8--|


== Chorus: ==

   E  E  E  E  E  E  E  E    E  E  E  E  E  E  E  E    E  E  E  E  E  E  E  E    E  E  E  E  E  E  E  E
E|-------------------------|-------------------------|-------------------------|-------------------------|
B|-------------3--3--3--3--|-3--3--3--3--3--3--3--3--|-4--4--4--4--4--4--4--4--|-3--3--3--3--3--3--3--3--|
G|-2--2--2--2--2--2--2--2--|-3--3--3--3--3--3--3--3--|-3--3--3--3--3--3--3--3--|-3--3--3--3--3--3--3--3--|
D|-4--4--4--4--4--4--4--4--|-5--5--5--5--5--5--5--5--|-5--5--5--5--5--5--5--5--|-3--3--3--3--3--3--3--3--| x 2
A|-5--5--5--5--5--5--5--5--|-5--5--5--5--5--5--5--5--|-6--6--6--6--6--6--6--6--|-5--5--5--5--5--5--5--5--|
D|-0--0--7--7--12-12-19-19-|-20-20-17-17-12-12-8--8--|-1--1--8--8--13-13-20-20-|-20-20-15-15-12-12-8--8--|
D|-0--0--7--7--12-12-19-19-|-20-20-17-17-12-12-8--8--|-1--1--8--8--13-13-20-20-|-20-20-15-15-12-12-8--8--|


== Outro: ==

   Q     E  E  E  E  E  E    E  E  E  E  E  E  E  E    E  E  E  E  E  E  E  E    E  E  E  E  E  E  E  E
E|-------14-14-10-10-5--5--|-------3--3--8--8--7--8--|-14-14-10-10-5--5--------|-3--3--8--8--11-11-15-15--|
B|-3-----15-15-10-10-7--7--|-4--4--4--4--8--8--------|-15-15-10-10-7--7--4--4--|-4--4--8--8--13-13-16-16--|
G|-2-----14-14-11-11-7--7--|-5--5--5--5--8--8--4--5--|-14-14-11-11-7--7--5--5--|-5--5--8--8--12-12-16-17--|
D|-4-----------------------|-5--5--------------------|-------------------5--5--|--------------------------|
A|-5-----------------------|-------------------------|-------------------------|--------------------------|
D|-0-----------------------|-1--1--5--5--10-10-9--10-|-12----------------1--1--|-5--5--10-10-10-10-9--10--|
D|-0-----------------------|-1--1--5--5--10-10-9--10-|-12----------------1--1--|-5--5--10-10-10-10-9--10--|
                                                                                                (Slow down)
   S S S S S S S S S S S S S S S S S  E   E  E
E|-14------------------------------10-14--14--14--|
B|-15------------------------10--10---------------|
G|-14------------------11--11--11-----------------|
D|---------------12--12--12-----------------------|
A|---------12--12--12-----------------------------|
D|-12-12-16--16-----------------------------------|
D|-12---------------------------------------------| (fade Out)
     '-12-' '-12-''-12-''-12''-12-''-12-'



Go back to tablature