Hyper Music (tablature)

MuseWiki, wiki for the band Muse
Jump to: navigation, search

Guitar

Intro:
Scratch your pick across the A string near the neck, then go into:
e|-------------------------------------------------------|
B|--------------------------------13---x-12--13--12------|
G|--------------------------------11---x-11--11--11--14--|
D|---4/15\------------------------12-----12----------12--|
A|-------------------------------------------------------|
D|---------------------------0---------------------------|

e|--------------------------------------------------------------|
B|--------13---x-12--13--12--------------13---x-12--13--12------|
G|--------11---x-11--11--11--14----------11---x-11--11--11--14--|
D|--------12-----12----------12----------12-----12----------12--|
A|--------------------------------------------------------------|
D|---0------------------------------0---------------------------|

e|--------------------------------------------------------|
B|--------13---x-12--13--12-------------6-----------------|
G|--------11---x-11--11--11--14---------5-----------------|
D|--------12-----12--12------12---------4---x-------5--7--|
A|--------------------------------------5---x-3--5--3--5--|
D|---0-----------------------------0----------3--5--------|

(With crunch overdrive)
e|-----------------------------------------------------------------------------|
B|-------6-------------------------6------------------------6------------------|
G|-------5-------------------------5------------------------5------------------|
D|-------4---x---------------------4---x-------5--7---------4---x--------------|
A|-------5---x-9--10--9--7----0----5---x-3--5--3--5---------5---x-9--10--9--7--|
D|--0----------9--10--9--7----0----------3--5----------0----------9--10--9--7--|

e|----------------------------------------------------------------------------|
B|-------6------------------------6-------------------------6-----------------|
G|-------5------------------------5-------------------------5-----------------|
D|-------4---x-------5--7---------4---x---------------------4---x-------5--7--|
A|--0----5---x-3--5--3--5---------5---x-9--10--9--7----0----5---x-3--5--3--5--|
D|--0----------3--5----------0----------9--10--9--7----0----------3--5--------|

e|----------------------------10---10---10---10---10---10---10---10---|
B|-------6--------------------10---10---10---10---10---10---10---10---|
G|-------5--------------------10b--10b--10b--10b--10b--10b--10b--10b--|
D|-------4---x--------------------------------------------------------|
A|-------5---x-9--10--9--7--------------------------------------------|
D|--0----------9--10--9--7--------------------------------------------|


Verse:

e|--10---10---10---10---10---10---10---10---|
B|--10---10---10---10---10---10---10---10---|
G|--10---10---10---10---10---10---10---10---|
D|------------------------------------------|
A|------------------------------------------|
D|------------------------------------------|

e|---10--10--10--10--10--10--10--10--10--10--10--10--10--10--10--10--|
B|---10--10--10--10--10--10--10--10--10--10--10--10--10--10--10--10--|
G|---10--10--10--10--10--10--10--10--10--10--10--10--10--10--10--10--|
D|-------------------------------------------------------------------|
A|-------------------------------------------------------------------|
D|-------------------------------------------------------------------|

e|---8---8---8---8---8---8---8---8---8---8---8---8---8---8---8---8--|
B|--10--10--10--10--10--10--10--10--10--10--10--10--10--10--10--10--|
G|---9---9---9---9---9---9---9---9---9---9---9---9---9---9---9---9--|
D|------------------------------------------------------------------|
A|------------------------------------------------------------------|
D|------------------------------------------------------------------|

e|---7---7---7---7---7---7---7---7---7---7---7---7---7---7---7---7--|
B|---8---8---8---8---8---8---8---8---8---8---8---8---8---8---8---8--|
G|---7---7---7---7---7---7---7---7---7---7---7---7---7---7---7---7--|
D|------------------------------------------------------------------|
A|------------------------------------------------------------------|
D|------------------------------------------------------------------|

e|---6---6---6---6---6---6---6---6---6---6---6---6---6---6---6---6---|
B|---8---8---8---8---8---8---8---8---8---8---8---8---8---8---8---8---|
G|---7---7---7---7---7---7---7---7---7---7---7---7---7---7---7---7---|
D|-------------------------------------------------------------------|
A|-------------------------------------------------------------------|
D|-------------------------------------------------------------------|

e|--10--10--10--10--10--10--10--10--10--10--10--10--10--10--10--10--|
B|--10--10--10--10--10--10--10--10--10--10--10--10--10--10--10--10--|
G|--10--10--10--10--10--10--10--10--10--10--10--10--10--10--10--10--|
D|------------------------------------------------------------------|
A|------------------------------------------------------------------|
D|------------------------------------------------------------------|

e|---8---8---8---8---8---8---8---8---8---8---8---8---8---8---8---8--|
B|--10--10--10--10--10--10--10--10--10--10--10--10--10--10--10--10--|
G|---9---9---9---9---9---9---9---9---9---9---9---9---9---9---9---9--|
D|------------------------------------------------------------------|
A|------------------------------------------------------------------|
D|------------------------------------------------------------------|

e|---7---------------------------------------------------|
B|---8-----------------------x-x--x--x--x--x--x--x-x-x-x-|
G|---7-----------------------x-x--x--x--x--x--x--x-x-x-x-|
D|---------------------------x-x--x--x--x--x--x--x-x-x-x-|
A|---------------------------x-x--x--x--x--x--x--x-x-x-x-|
D|---------------------------x-x--x--x--x--x--x--x-x-x-x-|


Bridge:

e|--------------------------------------------------------------|
B|--------13---x-12--13--12--------------13---x-12--13--12------|
G|--------11---x-11--11--11--14----------11---x-11--11--11--14--|
D|--------12-----12----------12----------12-----12----------12--|
A|--12-----------------------------12---------------------------|
D|---0------------------------------0---------------------------|

e|--------------------------------------------------------------|
B|--------13---x-12--13--12--------------13---x-12--13--12------|
G|--------11---x-11--11--11--14----------11---x-11--11--11--14--|
D|--------12-----12----------12----------12-----12--12------12--|
A|--12-----------------------------12---------------------------|
D|---0------------------------------0---------------------------|


Chorus:

e|----------------------------------------------------------------------------|
B|-------6------------------------6-------------------------6-----------------|
G|-------5------------------------5-------------------------5-----------------|
D|-------4---x-------5--7---------4---x---------------------4---x-------5--7--|
A|--0----5---x-3--5--3--5---------5---x-9--10--9--7----0----5---x-3--5--3--5--|
D|--0----------3--5----------0----------9--10--9--7----0----------3--5--------|

e|-----------------------------------------------------------------------------|
B|-------6-------------------------6------------------------6------------------|
G|-------5-------------------------5------------------------5------------------|
D|-------4---x---------------------4---x-------5--7---------4---x--------------|
A|-------5---x-9--10--9--7----0----5---x-3--5--3--5---------5---x-9--10--9--7--|
D|--0----------9--10--9--7----0----------3--5----------0----------9--10--9--7--|

e|---------------------------------------------------|
B|-------6------------------------6------------------|
G|-------5------------------------5------------------|
D|-------4---x-------5--7---------4---x--------------|
A|--0----5---x-3--5--3--5---------5---x-9--10--9--7--|
D|--0----------3--5----------0----------9--10--9--7--|

e|--10---10---10---10---10---10---10---10---|
B|--10---10---10---10---10---10---10---10---|
G|--10---10---10---10---10---10---10---10---|
D|------------------------------------------|
A|------------------------------------------|
D|------------------------------------------|

e|--10---10---10---10---10---10---10---10-----10--------------------|
B|--10---10---10---10---10---10---10---10-----10--------------------|
G|--10---10---10---10---10---10---10---10-----10--------------------|
D|------------------------------------------------------------------|
A|------------------------------------------------------------------|
D|------------------------------------------------------------------|


Verse:
(Starts as Matt sings "Who really cares anymore?")
e|--10--------------10----------------8-------------8-------------|
B|------10------10------10------10-------10-----10-----10-----10--|
G|----------10--------------10---------------9-------------9------|
D|----------------------------------------------------------------|
A|----------------------------------------------------------------|
D|----------------------------------------------------------------|

e|--7-----------7-------------6-----------6-----------|
B|-----8-----8-----8-----8-------8-----8-----8-----8--|
G|--------7-----------7-------------7-----------7-----|
D|----------------------------------------------------|
A|----------------------------------------------------|
D|----------------------------------------------------|

e|--10--------------10----------------8-------------8-------------|
B|------10------10------10------10-------10-----10-----10-----10--|
G|----------10--------------10---------------9-------------9------|
D|----------------------------------------------------------------|
A|----------------------------------------------------------------|
D|----------------------------------------------------------------|

e|---7-------------------------------------------------|
B|---8-----------------------x--x--x--x--x--x--x-x-x-x-|
G|---7-----------------------x--x--x--x--x--x--x-x-x-x-|
D|---------------------------x--x--x--x--x--x--x-x-x-x-|
A|---------------------------x--x--x--x--x--x--x-x-x-x-|
D|---------------------------x--x--x--x--x--x--x-x-x-x-|

Bridge:

e|--------------------------------------------------------------|
B|--------13---x-12--13--12--------------13---x-12--13--12------|
G|--------11---x-11--11--11--14----------11---x-11--11--11--14--|
D|--------12-----12----------12----------12-----12----------12--|
A|--12-----------------------------12---------------------------|
D|---0------------------------------0---------------------------|

e|--------------------------------------------------------------|
B|--------13---x-12--13--12--------------13---x-12--13--12------|
G|--------11---x-11--11--11--14----------11---x-11--11--11--14--|
D|--------12-----12----------12----------12-----12----------12--|
A|--12-----------------------------12---------------------------|
D|---0------------------------------0---------------------------|

Chorus:

e|----------------------------------------------------------------------------|
B|-------6------------------------6-------------------------6-----------------|
G|-------5------------------------5-------------------------5-----------------|
D|-------4---x-------5--7---------4---x---------------------4---x-------5--7--|
A|--0----5---x-3--5--3--5----0----5---x-9--10--9--7----0----5---x-3--5--3--5--|
D|--0----------3--5----------0----------9--10--9--7----0----------3--5--------|

e|-----------------------------------------------------------------------------|
B|-------6-------------------------6------------------------6------------------|
G|-------5-------------------------5------------------------5------------------|
D|-------4---x---------------------4---x-------5--7---------4---x--------------|
A|--0----5---x-9--10--9--7----0----5---x-3--5--3--5----0----5---x-9--10--9--7--|
D|--0----------9--10--9--7----0----------3--5----------0----------9--10--9--7--|

e|-----------------------------------------------------------------------------|
B|-------6------------------------6-------------------------6---x-x------------|
G|-------5------------------------5-------------------------5---x-x--6b--6--6--|
D|-------4---x-------5--7---------4---x---------------------4---x-x------------|
A|--0----5---x-3--5--3--5----0----5---x-9--10--9--7----0----5---x-x------------|
D|--0----------3--5----------0----------9--10--9--7----0-----------------------|

Refrain:

e|----------------------------------------------------|
B|-------6---x-x-------------------6---x-x------------|
G|-------5---x-x--6b--6--6---------5---x-x--6b--6--6--|
D|-------4---x-x-------------------4---x-x------------|
A|--0----5---x-x--------------0----5---x-x------------|
D|--0-------------------------0-----------------------|

e|------------------------------------------------------|
B|-------6---x---8br----6----6---8-6----6--8b-----------|
G|-------5---x----------x--7-----7---7------------------|
D|-------4---x------------------------------------------|
A|--0----5---x------------------------------------------|
D|--0---------------------------------------------------|

e|------------------------------------------------------|
B|-------6---x---8br----6----6---8-6----6--8b-----------|
G|-------5---x----------x--7-----7---7------------------|
D|-------4---x------------------------------------------|
A|--0----5---x------------------------------------------|
D|--0---------------------------------------------------|

e|----------------------------------------------------------------------------|
B|-------6---x-x-x-x-x-x-x-x-x-x-x-x-x---5b-----------------------------------|
G|-------5---x-x-x-x-x-x-x-x-x-x-x-x-x----------------------------------------|
D|-------4---x-x-x-x-x-x-x-x-x-x-x-x-x----------------------------------------|
A|--0----5---x-x-x-x-x-x-x-x-x-x-x-x-x----------------------------------------|
D|--0-------------------------------------------------------------------------|

Back to Tablature