Hoodoo (tablature)

MuseWiki, wiki for the band Muse
Jump to: navigation, search
Intro

e------------------------------------------------|
B------------------------------------------------|
G------------------------------------------------|
D------------------------------------------------|
A--10^11^10-10-10-10-10-10-11-13-11-10--10^11^10-|
E-------------------------------------13---------|

e--------------------------------------------------|
B--------------------------------------------------|
G--------------------------------------------------|
D--------------------------------------------------|
A--10-10-10^11-10----------------10^11^10--14\-----|
E-----------------13-11-10-11-13-------------------|
                                           trem. pick.

e--3--------4-------      -3-|
B--3--------4-------      -3-|
G--4--------5------- (x2) -4-|
D--5--------6-------      -5-|
A--5--------6-------      -5-|
E--3-(x11)--4-(x11)-      -3-|

   with Spanish Rythm

e--------------------------------|
B--------------------------------|
G--------------------------------|
D--------------------------------|
A--------------------------------|
E--2^3^2-(repeat)--3-3-3-4-6-4-3-|


Verse 1

e--------------8----------------------3-----------3-3-|
B------------8------------------9----4---0--------4-3-|
G----------8-----------------10-----3----0--------4-4-|
D-------10----------------10-------5--------------5-5-|
A----10-----------8-10-11-----------------------------|
E--8---------------------------------------6-4-3------|

Verse 2

e-----------------8----------------------3-----------3-3-|
B---------------8------------------9----4------------4-3-|
G-------------8-----------------10-----3----0--------4-4-|
D----------10----------------10-------------0------------|
A-------10-----------8-10-11-----------------------------|
E--3/-8---------------------------------------6-4-3------|


Chorus

e--------1-----1---------------------------------------------|
B------1-----1---1---------4-----4-----------3-----------3---|
G----1-----1-------1-----5-----5---5-------4---4-------4---4-|
D--3-------------------5-----5-------5---5-------5---5-------|
A--------------------6-----------------5-----------5---------|
E------------------------------------------------------------|

e-----------------------------------3-3-----------------------|
B--------4-----------4--------------3-3-------4---------------|
G------5---5-------5---5------------4-4-----5---5---------5---|
D----5-------5---5------5---------5---5---6-------6-----6---6-|
A--6-----------6----------------5---------------------6-------|
E-------------------------6-4-3---------4-----------4---------|

e-------------------8---------3----|
B--------------8--8---8-------3----|
G--------8---8--8-------8-----4----|
D------10-10--------------10--5----|
A----10-----------------------5----|
E--8--------------------------3----|

Piano Arranged For Guitar

e------------------------------------|
B-13----11---------11----------------|
G----12----10--12-----12-------------|
D-10----8----------8-----13--10------|
A----10----8---10-----10-------------|
E------------------------11--8-------|

Chords used:

Cm   x3554x
Ab5  x5653x
G    355433
Bb   688766
F    587565
Ab   466544
Eb   365343
D    254232
D    x54232
D7   x34232
Gm   6x0786
D    x04232
Fm   133111

Cm
Come to be

           Ab5
How did it come to be

          Cm
tied to a railroad

           Ab5
no love to set us free

           G     Bb   F
watch our souls fade away


        Ab     Eb   D
and our bodies crumbling


          D   D7  Gm  D  Gm   D
dont be afraiiiiiiiiiiiiiiiiiiiid


Fm     Cm       G        Cm
i will take the blow for you

e--------------------3--------3-3-|
B----------------9---4--------4-3-|
G-------------10-----3--------4-4-|
D----------10--------5--------5-5-|
A--8-10-11------------------------|
E-----------------------6-4-3-----|

e---------------------------------------------------7-------|
B--------------------------------------------------8---8\---|
G-------------------------------------------------8----8\---|
D-0----------------------0----------------------------------|
A-x-x-x------------------x-x-x------------------------------|
E-8^9^8-888-8-9-11-9-8-6-8^9^8-8-8^9^8-6-4-3---8------------|

===============================================================================


Go back to tablature