Guiding Light (tablature)

MuseWiki, wiki for the band Muse
Jump to: navigation, search
C           Am
Pure hearts stumble
   Dm F          Gsus4 G
In my hands they crumble
    Am   G      C               F
And fragile and stripped to the core
        C        G  C
I can't hurt you anymore

C        Am
Loved by numbers, 
       Dm  F         Gsus4 G
You're losing life's wonder
Am    G    C            F
Touch like strangers; detached
        C        G  C
I can't feel you anymore

        F  G     Am              F
There's sunshine trapped in our hearts
         G    C
It could rise again
        F         G            Am        F
But I'm lost, and crushed, and cold, and confused
        Dm      G            C
With no guiding light left inside
 
(Csus4 C)x2
            F       C 
You were my guiding light


Solo  
   C              Am                        Dm       F           Gsus4          G
e|--------------|--------------------------|--------------------|--------------------|
B|--------------|--------------------------|--------------------|--------------------|
G|--------------|--------------------------|--------------------|----------------*---|
D|-----------5--|-9b10--9b10r9-7--(7)\-----|--------------------|------------20235~--|
A|-------7------|-x-----x--------------8-7-|-5~-------3~---(3)\-|--0202323535--------|
E|-\8~----------|-x-----x------------------|------1-1-----------|-3------------------|
                                       . .        . .             ...............
    Am   G      C           F                         C                       G                           C
e|------------|-12----12----------13-13-------13-13-|-------12-12-------12-12-------10-10----------------|------------------|
B|-/13~--15~--|-15b17-15b17-------------------------|---------------------------------------------13-----|T-13~-------------|
G|------------|-------------14-14-------14-14-------|-12-12-------12-12-------10-10-------10-10---15b17--|T-b17~------------|
D|------------|-------------------------------------|----------------------------------------------------|------------------|
A|------------|-------------------------------------|----------------------------------------------------|------------------|
E|------------|-------------------------------------|----------------------------------------------------|------------------|


     F  G        Am              F  
When comfort and warmth can't be found
        G         C
I still reach for you
        F         G            Am           F
But I'm lost, and crushed, and cold, and confused
        Dm      G            C
With no guiding light left inside

(Csus4 C)x2
          F       C
You're my guiding light
          F       C
You're my guiding light
                F       Fm           C
When there's no guiding light left inside
                F       Fm             C
When there's no guiding light in our lives


End on C major


Legend
|~  sustained noted
|*  pinch harmonic
|.  palm muting
|/  slide up
|\  slide down
|() slide along neck from fret
|X  muted note
|T  tied note
|b  bend note to indicated fret
|r  release bend
===================================


Go back to Tablature