Glorious (tablature)

MuseWiki, wiki for the band Muse
Jump to: navigation, search

Guitar, Piano and Bass Tabbed by Adam

Muse Tab
Name Glorious
Length 04:38
Tuning EADGBE (Standard)
Tempo 120bpm
Timing 4/4

Guitar

Intro I: - (0:00 - 0:26)

e|---------------------------------|---------------------------------|
B|---------------------------------|---------------------------------|
G|-9-9---9-9---9-9---9-9---9---9---|-9-9---9-9---9-9---9-9---9---9---| (x4)
D|---------------------------------|---------------------------------|
A|---------------------------------|---------------------------------|
E|---------------------------------|---------------------------------|

Intro I: (0:27 - 0:46)

Intro II: (0:46 - 1:05)

e|---------------------------------|---------------------------------|
B|---------------------------------|---------------------------------|
G|---------------------------------|---------------------------------|
D|-9-----8-----9-----11----9---8---|-9-----8-----9-----11----9---8---| (x4)
A|---7-7---7-7---7-7---7-7---7---7-|---7-7---7-7---7-7---7-7---7---7-|
E|---------------------------------|---------------------------------|

Verse: (1:05 - 1:24)

Bridge: (1:25 - 1:43)

e|---------------------------------|---------------------------------|
B|---------------------------------|---------------------------------|
G|---------------------------------|---------------------------------|
D|-9-----8-----9-----11----9---8---|-9-----8-----9-----11----9---8---| (x4)
A|---7-7---7-7---7-7---7-7---7---7-|---7-7---7-7---7-7---7-7---7---7-|
E|---------------------------------|---------------------------------|

e|---------------------------------|---------------------------------|
B|---------------------------------|---------------------------------|
G|---------------------------------|---------------------------------|
D|-9-----8-----9-----11----9---8---|-9-----8-----9-----11-11b12------|
A|---7-7---7-7---7-7---7-7---7---7-|---7-7---7-7---7-7---------------|
E|---------------------------------|---------------------------------|

Interlude: (1:44 - 1:53)

e|---------------------------------|---------------------------------|
B|---------------------------------|---------------------------------|
G|-8-------8-------9-------9-------|-10------10------11------11------|
D|---------------------------------|---------------------------------| (x2)
A|-6---6---6---6---7---7---7---7---|-8---8---8---8---9---9---9---9---|
E|---------------------------------|---------------------------------|

Chorus: (1:53 - 2:31)

e|---------------------------------|---------------------------------|
B|---------------------------------|---------------------------------|
G|-8-------8-------9-------9-------|-10------10------11------11------|
D|---------------------------------|---------------------------------|
A|-6---6---6---6---7---7---7---7---|-8---8---8---8---9---9---9---9---|
E|---------------------------------|---------------------------------|

e|---------------------------------|---------------------------------|
B|---------------------------------|---------------------------------|
G|-12------12------13------13------|-14------14------15------15------|
D|---------------------------------|---------------------------------|
A|-10--10--10--10--11--11--11--11--|-12--12--12--12--13--13--13--13--|
E|---------------------------------|---------------------------------|

e|---------------------------------|---------------------------------|
B|---------------------------------|---------------------------------|
G|-16------16------18------18------|-19------19------20------20------|
D|---------------------------------|---------------------------------|
A|-14--14--14--14--16--16--16--16--|-17--17--17--17--18--18--18--18--|
E|---------------------------------|---------------------------------|

e|---------------------------------|---------------------------------|
B|-17------17------18------18------|-19------19------20------20------|
G|---------------------------------|---------------------------------|
D|-14--14--14--14--15--15--15--15--|-16--16--16--16--17--17--17--17--|
A|---------------------------------|---------------------------------|
E|---------------------------------|---------------------------------|

e|---------------------------------|---------------------------------|
B|-20------20------19------19------|-17------17------16------16------|
G|---------------------------------|---------------------------------|
D|-17--17--17--17--16--16--16--16--|-14--14--14--14--13--13--13--17--|
A|---------------------------------|---------------------------------|
E|---------------------------------|---------------------------------|

e|-18------18------19------19------|-19------19------18------18------|
B|---------------------------------|---------------------------------|
G|-15--15--15--15--16--16--16--16--|-16--16--16--16--15--15--15--15--|
D|---------------------------------|---------------------------------|
A|---------------------------------|---------------------------------|
E|---------------------------------|---------------------------------|

e|-16------16--------------14------|-14------14------14------14------|
B|-----------------16--------------|---------------------------------|
G|-13--13--13--13----------11--11--|-11--11--11--11--11--11--11--11--|
D|-----------------13--13----------|---------------------------------|
A|---------------------------------|---------------------------------|
E|---------------------------------|---------------------------------|

e|-12------12------12------12------|
B|---------------------------------|
G|-9---9---9---9---9---9---9---9---|
D|---------------------------------|
A|---------------------------------|
E|---------------------------------|

Interlude: (2:31 - 2:40)

Guitar 1 (Distorted)

e|---------------------------------|---------------------------------|
B|---------------------------------|---------------------------------|
G|---------------------------------|---------------------------------|
D|---------------------------------|---------------------------------|
A|-14---------------------(14)\----|-2-----------------------(2)/----|
E|-12---------------------(12)\----|-0-----------------------(0)/----|

e|---------------------------------|---------------------------------|
B|---------------------------------|---------------------------------|
G|---------------------------------|---------------------------------|
D|---------------------------------|---------------------------------|
A|-16---------------------(16)\----|-6-------------------------------|
E|-14---------------------(14)\----|-4-------------------------------|

Guitar 2 (Acoustic)

e|---------------------------------|---------------------------------|
B|---------------------------------|---------------------------------|
G|---------------------------------|---------------------------------|
D|-9-----8-----9-----11----9---8---|-9-----8-----9-----11----9---8---|
A|---7-7---7-7---7-7---7-7---7---7-|---7-7---7-7---7-7---7-7---7---7-|
E|---------------------------------|---------------------------------|

e|---------------------------------|---------------------------------|
B|---------------------------------|---------------------------------|
G|---------------------------------|---------------------------------|
D|-9-----8-----9-----11----9---8---|-9-----8-----9-----11----9---8---|
A|---7-7---7-7---7-7---7-7---7---7-|---7-7---7-7---7-7---7-7---7---7-|
E|---------------------------------|---------------------------------|


Verse II: (2:40 - 2:50)

Guitar 1 (Distorted)

e|---------------------------------|---------------------------------|
B|---------------------------------|---------------------------------|
G|---------------------------------|---------------------------------|
D|---------------------------------|---------------------------------|
A|-14---------------------(14)\----|-2-----------------------(2)/----|
E|-12---------------------(12)\----|-0-----------------------(0)/----|

e|---------------------------------|---------------------------------|
B|---------------------------------|---------------------------------|
G|---------------------------------|---------------------------------|
D|---------------------------------|---------------------------------|
A|-16---------------------(16)\----|-6-------------------------------|
E|-14---------------------(14)\----|-4-------------------------------|

Guitar 2 (Acoustic)

e|---------------------------------|---------------------------------|
B|---------------------------------|---------------------------------|
G|---------------------------------|---------------------------------|
D|-9-----8-----9-----11----9---8---|-9-----8-----9-----11----9---8---|
A|---7-7---7-7---7-7---7-7---7---7-|---7-7---7-7---7-7---7-7---7---7-|
E|---------------------------------|---------------------------------|

e|---------------------------------|---------------------------------|
B|---------------------------------|---------------------------------|
G|---------------------------------|---------------------------------|
D|-9-----8-----9-----11----9---8---|-9-----8-----9-----11----9---8---|
A|---7-7---7-7---7-7---7-7---7---7-|---7-7---7-7---7-7---7-7---7---7-|
E|---------------------------------|---------------------------------|

Bridge II: (2:50 - 3:09)

e|---------------------------------|---------------------------------|
B|---------------------------------|---------------------------------|
G|---------------------------------|---------------------------------|
D|-9-----8-----9-----11----9---8---|-9-----8-----9-----11----9---8---| (x3)
A|---7-7---7-7---7-7---7-7---7---7-|---7-7---7-7---7-7---7-7---7---7-|
E|---------------------------------|---------------------------------|

e|---------------------------------|---------------------------------|
B|---------------------------------|---------------------------------|
G|---------------------------------|---------------------------------|
D|-9-----8-----9-----11----9---8---|-9-----8-----9-----11-11b12------|
A|---7-7---7-7---7-7---7-7---7---7-|---7-7---7-7---7-7---------------|
E|---------------------------------|---------------------------------|

Chorus II: (3:09 - 3:47)

e|---------------------------------|---------------------------------|
B|---------------------------------|---------------------------------|
G|-8-------8-------9-------9-------|-10------10------11------11------|
D|---------------------------------|---------------------------------|
A|-6---6---6---6---7---7---7---7---|-8---8---8---8---9---9---9---9---|
E|---------------------------------|---------------------------------|

e|---------------------------------|---------------------------------|
B|---------------------------------|---------------------------------|
G|-12------12------13------13------|-14------14------15------15------|
D|---------------------------------|---------------------------------|
A|-10--10--10--10--11--11--11--11--|-12--12--12--12--13--13--13--13--|
E|---------------------------------|---------------------------------|

e|---------------------------------|---------------------------------|
B|---------------------------------|---------------------------------|
G|-16------16------18------18------|-19------19------20------20------|
D|---------------------------------|---------------------------------|
A|-14--14--14--14--16--16--16--16--|-17--17--17--17--18--18--18--18--|
E|---------------------------------|---------------------------------|

e|---------------------------------|---------------------------------|
B|-17------17------18------18------|-19------19------20------20------|
G|---------------------------------|---------------------------------|
D|-14--14--14--14--15--15--15--15--|-16--16--16--16--17--17--17--17--|
A|---------------------------------|---------------------------------|
E|---------------------------------|---------------------------------|

e|---------------------------------|---------------------------------|
B|-20------20------19------19------|-17------17------16------16------|
G|---------------------------------|---------------------------------|
D|-17--17--17--17--16--16--16--16--|-14--14--14--14--13--13--13--17--|
A|---------------------------------|---------------------------------|
E|---------------------------------|---------------------------------|

e|-18------18------19------19------|-19------19------18------18------|
B|---------------------------------|---------------------------------|
G|-15--15--15--15--16--16--16--16--|-16--16--16--16--15--15--15--15--|
D|---------------------------------|---------------------------------|
A|---------------------------------|---------------------------------|
E|---------------------------------|---------------------------------|

e|-16------16--------------14------|-14------14------14------14------|
B|-----------------16--------------|---------------------------------|
G|-13--13--13--13----------11--11--|-11--11--11--11--11--11--11--11--|
D|-----------------13--13----------|---------------------------------|
A|---------------------------------|---------------------------------|
E|---------------------------------|---------------------------------|

e|-12------12------12------12------|
B|---------------------------------|
G|-9---9---9---9---9---9---9---9---|
D|---------------------------------|
A|---------------------------------|
E|---------------------------------|

Outro: (3:47 - 4:38)

e|---------------------------------|---------------------------------|
B|---------------------------------|---------------------------------|
G|---------------------------------|---------------------------------|
D|-9-----8-----9-----11----9---8---|-9-----8-----9-----11----9---11--|
A|---7-7---7-7---7-7---7-7---7---7-|---7-7---7-7---7-7---7-7---7---7-|
E|---------------------------------|---------------------------------|

e|---------------------------------|---------------------------------|
B|---------------------------------|---------------------------------|
G|---------------------------------|---------------------------------|
D|-11----9-----11----13----11--9---|-11----9-----11----13----11--13--|
A|---9-9---9-9---9-9---9-9---9---9-|---9-9---9-9---9-9---9-9---9---9-|
E|---------------------------------|---------------------------------|

e|---------------------------------|---------------------------------|
B|---------------------------------|---------------------------------|
G|-9-----8---------------------8---|-9-----8---------------------8---|
D|-------------11----9-----11------|-------------11----9-----11------| 
A|---7-7---7-7---7-7---7-7---7---7-|---7-7---7-7---7-7---7-7---7---7-|
E|---------------------------------|---------------------------------|

e|---------------------------------|---------------------------------|
B|---------------------------------|---------------------------------|
G|-9-----8---------------------8---|-9-----8---------------------8---|
D|-------------11----9-----11------|-------------11----9-----11------| 
A|---7-7---7-7---7-7---7-7---7---7-|---7-7---7-7---7-7---7-7---7---7-|
E|---------------------------------|---------------------------------|

e|---------------------------------|---------------------------------|
B|---------------------------------|---------------------------------|
G|-------------------11------------|-------------------11------------|
D|-14----13----14----------14--13--|-14----13----14----------14--13--|
A|---9-9---9-9---9-9---9-9---9---9-|---9-9---9-9---9-9---9-9---9---9-|
E|---------------------------------|---------------------------------|
   (Multiple clean guitars come in) 
e|---------------------------------|---------------------------------|
B|---------------------------------|---------------------------------|
G|---------------------------------|---------------------------------|
D|-9-------------------------------|---------------------------------|
A|-9-------------------------------|---------------------------------|
E|-7-------------------------------|---------------------------------|

Piano


Intro: - (0:00 - 0:46)

Piano (arr. Guitar)

e|---------------------------------|---------------------------------|
B|-12----11----12----14----12--11--|-12----11----12----14----12--11--|
G|---9-9---9-9---9-9---9-9---9---9-|---9-9---9-9---9-9---9-9---9---9-| (x5)
D|---------------------------------|---------------------------------|
A|---------------------------------|---------------------------------|
E|---------------------------------|---------------------------------|

e|---------------------------------|---------------------------------|
B|-12----11----12----14----12--11--|-12----11----12----14----12--11--|
G|---8-8---8-8---8-8---8-8---8---8-|---8-8---8-8---8-8---8-8---8---8-|
D|---------------------------------|---------------------------------|
A|---------------------------------|---------------------------------|
E|---------------------------------|---------------------------------|

e|---------------------------------|---------------------------------|
B|-12----11----12----14----12--11--|-12----11----12----14----12--11--|
G|---9-9---9-9---9-9---9-9---9---9-|---9-9---9-9---9-9---9-9---9---9-|
D|---------------------------------|---------------------------------|
A|---------------------------------|---------------------------------|
E|---------------------------------|---------------------------------|

e|---------------------------------|---------------------------------|
B|-12----11----12----14----12--11--|-12----11----12----14----12--11--|
G|---8-8---8-8---8-8---8-8---8---8-|---8-8---8-8---8-8---8-8---8---8-|
D|---------------------------------|---------------------------------|
A|---------------------------------|---------------------------------|
E|---------------------------------|---------------------------------|

Intro II: (0:46 - 1:05)

Verse: (1:05 - 1:24)

e|---------------------------------|---------------------------------|
B|-12----11----12----14----12--11--|-12----11----12----14----12--11--|
G|---9-9---9-9---9-9---9-9---9---9-|---9-9---9-9---9-9---9-9---9---9-|
D|---------------------------------|---------------------------------|
A|---------------------------------|---------------------------------|
E|---------------------------------|---------------------------------|

e|---------------------------------|---------------------------------|
B|-12----11----12----14----12--11--|-12----11----12----14----12--11--|
G|---8-8---8-8---8-8---8-8---8---8-|---8-8---8-8---8-8---8-8---8---8-|
D|---------------------------------|---------------------------------|
A|---------------------------------|---------------------------------|
E|---------------------------------|---------------------------------|

e|---------------------------------|---------------------------------|
B|-12----11----12----14----12--11--|-12----11----12----14----12--11--|
G|---9-9---9-9---9-9---9-9---9---9-|---9-9---9-9---9-9---9-9---9---9-|
D|---------------------------------|---------------------------------|
A|---------------------------------|---------------------------------|
E|---------------------------------|---------------------------------|

e|---------------------------------|---------------------------------|
B|-12----11----12----14----12--11--|-12----11----12----14----12--11--|
G|---8-8---8-8---8-8---8-8---8---8-|---8-8---8-8---8-8---8-8---8---8-|
D|---------------------------------|---------------------------------|
A|---------------------------------|---------------------------------|
E|---------------------------------|---------------------------------|

Bass


Intro I: (0:27 - 0:46)

G|---------------------------------|---------------------------------|
D|---------------------------------|---------------------------------|
A|---------------------------------|---------------------------------|
E|-12--------------------(12)\-----|-0-------------------------------|

G|---------------------------------|---------------------------------|
D|---------------------------------|---------------------------------|
A|---------------------------------|---------------------------------| (x2)
E|-16--------------------(16)\-----|-4----------------------(4)/-----|

Intro II: (0:46 - 1:05)

G|---------------------------------|---------------------------------|
D|---------------------------------|---------------------------------|
A|-9-9-9-9-9-9-9-9-9-9-9-9-9-9-9-9-|-9-9-9-9-9-9-9-9-9-9-9-9-9-9-9-9-|
E|---------------------------------|---------------------------------|

G|---------------------------------|---------------------------------|
D|---------------------------------|---------------------------------|
A|---------------------------------|-------------------6-6-6-7-7-9-9-|
E|-9-9-9-9-9-9-9-9-9-9-9-9-9-9-9-9-|-9-9-9-9-9-9-9-9-9---------------|

G|---------------------------------|---------------------------------|
D|---------------------------------|---------------------------------|
A|-7-7-7-7-7-7-7-7-7-7-7-7-7-7-7-7-|-7-7-7-7-7-7-7-7-7-7-7-7-7-7-7-7-|
E|---------------------------------|---------------------------------|

G|---------------------------------|---------------------------------|
D|---------------------------------|---------------------------------|
A|-9-9-9-9-9-9-9-9-9-9-9-9-9-9-9-9-|-9-9-9-9-9-9-9-9-9-9-9-9-9-9-9-9-|
E|---------------------------------|---------------------------------|

Verse: (1:05 - 1:24)

G|---------------------------------|---------------------------------|
D|---------------------------------|---------------------------------|
A|---------------------------------|---------------------------------|
E|-12--------------------(12)\-----|-0-------------------------------|

G|---------------------------------|---------------------------------|
D|---------------------------------|---------------------------------|
A|---------------------------------|---------------------------------| (x2)
E|-16--------------------(16)\-----|-4----------------------(4)/-----|

Bridge: (1:25 - 1:43)

G|---------------------------------|---------------------------------|
D|---------------------------------|---------------------------------|
A|-9-9-9-9-9-9-9-9-9-9-9-9-9-9-9-9-|-9-9-9-9-9-9-9-9-9-9-9-9-9-9-9-9-|
E|---------------------------------|---------------------------------|

G|---------------------------------|---------------------------------|
D|---------------------------------|---------------------------------|
A|---------------------------------|-------------------6-6-6-7-7-9-9-|
E|-9-9-9-9-9-9-9-9-9-9-9-9-9-9-9-9-|-9-9-9-9-9-9-9-9-9---------------|

G|---------------------------------|---------------------------------|
D|---------------------------------|---------------------------------|
A|-7-7-7-7-7-7-7-7-7-7-7-7-7-7-7-7-|-7-7-7-7-7-7-7-7-7-7-7-7-7-7-7-7-|
E|---------------------------------|---------------------------------|

G|---------------------------------|---------------------------------|
D|---------------------------------|---------------------------------|
A|-9-9-9-9-9-9-9-9-9-9-9-9-9-9-9-9-|-9-9-9-9-9-9-9-9-9-9-9-9-9-9-9-9-|
E|---------------------------------|---------------------------------|

Interlude: (1:44 - 1:53)

G|---------------------------------|---------------------------------|
D|-9-----9-----9---9-----9-----9---|-9-----9-----9---9-----9-----9---|
A|---------------------------------|---------------------------------| (x2)
E|---7-7---7-7---7---7-7---7-7---7-|---7-7---7-7---7---7-7---7-7---7-|

Chorus: (1:53 - 2:31)

G|---------------------------------|---------------------------------|
D|-9-----9-----9---9-----9-----9---|-9-----9-----9---9-----9-----9---|
A|---------------------------------|---------------------------------|
E|---7-7---7-7---7---7-7---7-7---7-|---7-7---7-7---7---7-7---7-7---7-|

G|---------------------------------|---------------------------------|
D|---------------------------------|---------------------------------|
A|-7-----7-----7---7-----7-----7---|-7-----7-----7---7-----7-----7---|
E|---0-0---0-0---0---0-0---0-0---0-|---0-0---0-0---0---0-0---0-0---0-|

G|---------------------------------|---------------------------------|
D|-6-----6-----6---6-----6-----6---|-6-----6-----6---6-----6-----6---|
A|---------------------------------|---------------------------------|
E|---4-4---4-4---4---4-4---4-4---4-|---4-4---4-4---4---4-4---4-4---4-|

G|---------------------------------|---------------------------------|
D|---------------------------------|---------------------------------|
A|-7-----7-----7---7-----7-----7---|-7-----7-----7---7-----7-----7---| (x2)
E|---0-0---0-0---0---0-0---0-0---0-|---0-0---0-0---0---0-0---0-0---0-|

Interlude: (2:31 - 2:40)

Verse II: (2:40 - 2:50)

Bridge II: (2:50 - 3:09)

G|---------------------------------|---------------------------------|
D|---------------------------------|---------------------------------|
A|-9-9-9-9-9-9-9-9-9-9-9-9-9-9-9-9-|-9-9-9-9-9-9-9-9-9-9-9-9-9-9-9-9-|
E|---------------------------------|---------------------------------|

G|---------------------------------|---------------------------------|
D|---------------------------------|---------------------------------|
A|---------------------------------|-------------------6-6-6-7-7-9-9-|
E|-9-9-9-9-9-9-9-9-9-9-9-9-9-9-9-9-|-9-9-9-9-9-9-9-9-9---------------|

G|---------------------------------|---------------------------------|
D|---------------------------------|---------------------------------|
A|-7-7-7-7-7-7-7-7-7-7-7-7-7-7-7-7-|-7-7-7-7-7-7-7-7-7-7-7-7-7-7-7-7-|
E|---------------------------------|---------------------------------|

G|---------------------------------|---------------------------------|
D|---------------------------------|---------------------------------|
A|-9-9-9-9-9-9-9-9-9-9-9-9-9-9-9-9-|-9-9-9-9-9-9-9-9-9-9-9-9-9-9-9-9-|
E|---------------------------------|---------------------------------|

Chorus II: (3:09 - 3:47)

G|---------------------------------|---------------------------------|
D|-9-----9-----9---9-----9-----9---|-9-----9-----9---9-----9-----9---|
A|---------------------------------|---------------------------------|
E|---7-7---7-7---7---7-7---7-7---7-|---7-7---7-7---7---7-7---7-7---7-|

G|---------------------------------|---------------------------------|
D|---------------------------------|---------------------------------|
A|-7-----7-----7---7-----7-----7---|-7-----7-----7---7-----7-----7---|
E|---0-0---0-0---0---0-0---0-0---0-|---0-0---0-0---0---0-0---0-0---0-|

G|---------------------------------|---------------------------------|
D|-6-----6-----6---6-----6-----6---|-6-----6-----6---6-----6-----6---|
A|---------------------------------|---------------------------------|
E|---4-4---4-4---4---4-4---4-4---4-|---4-4---4-4---4---4-4---4-4---4-|

G|---------------------------------|---------------------------------|
D|---------------------------------|---------------------------------|
A|-7-----7-----7---7-----7-----7---|-7-----7-----7---7-----7-----7---| (x2)
E|---0-0---0-0---0---0-0---0-0---0-|---0-0---0-0---0---0-0---0-0---0-|

Outro: (3:47 - 4:38)

G|---------------------------------|---------------------------------|
D|---------------------------------|---------------------------------|
A|-7-7-7-7-7-7-7-7-7-7-7-7-7-7-7-7-|-7-7-7-7-7-7-7-7-7-7-7-7-7-7-7-7-|
E|---------------------------------|---------------------------------|

G|---------------------------------|---------------------------------|
D|---------------------------------|---------------------------------|
A|-9-9-9-9-9-9-9-9-9-9-9-9-9-9-9-9-|-9-9-9-9-9-9-9-9-9-9-9-9-9-9-9-9-|
E|---------------------------------|---------------------------------|

G|---------------------------------|---------------------------------|
D|---------------------------------|---------------------------------|
A|---------------------------------|-------------------6-6-6-7-7-9-9-|
E|-9-9-9-9-9-9-9-9-9-9-9-9-9-9-9-9-|-9-9-9-9-9-9-9-9-9---------------|

G|---------------------------------|---------------------------------|
D|---------------------------------|---------------------------------|
A|-7-7-7-7-7-7-7-7-7-7-7-7-7-7-7-7-|-7-7-7-7-7-7-7-7-7-7-7-7-7-7-7-7-|
E|---------------------------------|---------------------------------|

G|---------------------------------|---------------------------------|
D|-8-8-8-8-8-8-8-8-8-8-8-8-8-8-8-8-|-8-8-8-8-8-8-8-8-8-8-8-8-8-8-8-8-|
A|---------------------------------|---------------------------------|
E|---------------------------------|---------------------------------|

G|---------------------------------|---------------------------------|
D|---------------------------------|---------------------------------|
A|---------------------------------|---------------------------------|
E|-7-------------------------------|---------------------------------|


Go back to tablature