Forameus (tablature)

MuseWiki, wiki for the band Muse
Jump to: navigation, search

INTRO

e|-------------------------------------------------------------------|
B|-------------------------------------------------------------------|
G|-------------------------------------------------------------------| X2
D|-------------------------------------------------------------------|
A|----7-6-5---7-6-5--------------------------------------------------|
E|--0-------0-------0-3-4-5-0-5-4-3----------------------------------|

e|-------------------------------------------------------------------|
B|-------------------------------------------------------------------|
G|------7~------7~------7~------7~------6b7~-6b7r6b7r6b7~\0----------|
D|-------------------------------------------------------------------|
A|-------------------------------------------------------------------|
E|--0-------0-------0-------0-------0--------------------------------|

VERSE

our lives at stake...
e|-------------------------------------------------------------------|
B|-------------------------------------------------------------------|
G|--9-9--------9-9---------------------------------------------------| X4
D|------8-9--------8-9--9-8-9----------------------------------------|
A|-------------------------------------------------------------------|
E|-------------------------------------------------------------------|

it doesn't matter...
e|-----------------------|-------------------------------------------|
B|--9-9-9-9-7--7-7-7--X8-|-------------------------------------------|
G|--9-9-9-9-8--8-8-8-----|-------------------------------------------|
D|--9-9-9-9-9--9-9-9-----|-------------------------------------------|
A|--7-7-7-7-9--9-9-9-----|--2-1--------------------------------------|
E|-----------------------|------0------------------------------------|

PRE-CHORUS

falling once again...
e|-------------------------------------------------------------------|
B|-------------------------------------------------------------------|
G|-------------------------------------------------------------------|
D|--7-7-7-7-7-7-7-7-7-7-7-7-7-7-7-7-9-9-9-9-9-9-9-9-9-9-9-9-9-9-9-9--|
A|--7-7-7-7-7-7-7-7-7-7-7-7-7-7-7-7-9-9-9-9-9-9-9-9-9-9-9-9-9-9-9-9--|
E|--5-5-5-5-5-5-5-5-5-5-5-5-5-5-5-5-7-7-7-7-7-7-7-7-7-7-7-7-7-7-7-7--|

CHORUS

you'll steal it anyway...
e|-------------------------------------------------------------------|
B|-------------------------------------------------------------------|
G|-------------------------------------------------------------------|
D|--2-2-2-2-6-6-6-6-7-7-7-7-7-7-7-7--2-2-2-2-6-6-6-6-7-7-7-7-7-7-7-7-|
A|--2-2-2-2-6-6-6-6-7-7-7-7-7-7-7-7--2-2-2-2-6-6-6-6-7-7-7-7-7-7-7-7-| -
E|--0-0-0-0-4-4-4-4-5-5-5-5-5-5-5-5--0-0-0-0-4-4-4-4-5-5-5-5-5-5-5-5-| |
                                                                       |X2
e|-------------------------------------------------------------------| |
B|-------------------------------------------------------------------| -
G|-------------------------------------------------------------------|
D|--2-2-2-2-6-6-6-6-7-7-7-7-8-8-8-8-9-9-9-9-9-9-9-9-9-9-9-9-9-9-9-9--|
A|--2-2-2-2-6-6-6-6-7-7-7-7-7-7-7-7-9-9-9-9-9-9-9-9-9-9-9-9-9-9-9-9--|
E|--0-0-0-0-4-4-4-4-5-5-5-5-6-6-6-6-7-7-7-7-7-7-7-7-7-7-7-7-7-7-7-7--|

SOLO

 [tremelo picking for the first part]
e|-------------------------------------------------------------------|
B|----------------------------------------------17-----17------------|
G|--14b16r14b16r14b16r14b16r14b16r14b16-14-12---19b21--21------------|
D|-------------------------------------------------------------------|
A|-----------------------------------------------------(X13)---------|
E|-------------------------------------------------------------------|

                                                       play these final two strings together (with the 19th fret
                                                       bent to a 21 or just playing the 21st fret) 13 times.

e|-------------------------------------------|-----------------------|
B|--19b20-17-15------------------------------|-----------------------|
G|--------------16-14b15r14-12----12----14~--|--(ad lib at top end)--|
D|-----------------------------14----14------|--(   of fretboard  )--|
A|-------------------------------------------|-----------------------|
E|-------------------------------------------|-----------------------|

e|-------------------------------------------------------------------|
B|-------------------------------------------------------------------|
G|--9-9-9-9-6-6-6-6-6-6-6-6-5-5-5-5----------------------------------|
D|--9-9-9-9-6-6-6-6-6-6-6-6-5-5-5-5----------------------------------|
A|--7-7-7-7-5-5-5-5-4-4-4-4-3-3-3-3-0-2-0-2-0-2-0-2~-----------------|
E|-------------------------------------------------------------------|

Order:
intro
verse
pre-chorus
chorus
intro
verse
pre-chorus
chorus
solo
chorus (faster tempo)
end on E power chord

Tabbed by aJ`


Go back to tablature