Feeling Good (tablature)

MuseWiki, wiki for the band Muse
Jump to: navigation, search

"no official sheet music please......."

Bass tab

Ok, this is the bass line.  It's fairly simple and repeats throughout.

Main riff:
G|------------------------------------|
D|------------------------------------|       x3
A|10---10-8---8-6---6-5--5-8-5-8-10---|
E|------------------------------------|

"Blossom in the trees" (i.e., 3rd time):
G|-----------------------------------------------------------|
D|-----------------------------------------------------------|
A|10---10-8---8-7---7-6---6-5---5-3---3-1---1-0-0-33333345---|
E|-----------------------------------------------------------|

3rd verse (megaphone bit):
G|------------------------------------|
D|------------------------------------|
A|10---10-8---8-6---6-5--9-12-10------|
E|------------------------------------|

G|------------------------------------|
D|------------------------------------|
A|10---10-8---8-6---6-5--9-12-13------|
E|------------------------------------|

G|--------------------------------------------------|
D|--------------------------------------------------|
A|13-10---10-6---6-3---10-13---13-10---13--5-6---6-5|
E|--------------------------------------------------|

Then back to main riff and "Blossoms" riff (third time riff).

Bridge ("feelin goooooooooood" and random falsetto):
G|5------5-4-3-2------2-0-------------------------|
D|------------------------4-3-----3----3-2-1-----1|
A|------------------------------------------------|
E|------------------------------------------------|

G|--------------------------------------|
D|0-0-0-0-0-0-0-0-0-0-0-0-0-0-0-0-0-0-0-|
A|--------------------------------------|
E|--------------------------------------|

Last verse (crazy falsetto voice shredding):
Play main riff twice then play "Blossoms" (third time riff).
End on

G|----------------------------|
D|----------------------------|
A|----------------------------|
E|--3-------------------------|


Tabbed by MicroDeadStars.  Feel free to edit.


Go back to tablature