Exogenesis: Symphony Pt. 2 Cross-Pollination (tablature)

MuseWiki, wiki for the band Muse
Jump to: navigation, search
D|----------------------------------------------------------|
A|----------------------------------------------------------|
F|-5--------------------------------------------------------|
C|----------------------------------------------------------|
G|-3--------------------------------------------------------|
C|----------------------------------------------------------|  x32
Play this during the build-up after "It's up to you..". Palm-mute.


D|----------------------------------------------------------|
A|----------------------------------------------------------|
F|-8------7-----8-----10-----8---8--7~----------------------|
C|----------------------------------------------------------|
G|----------------------------------------------------------|
C|----------------------------------------------------------|  x2
"Spread.."


D|----------------8-7-6-4-3h4p3-----------------------------|
A|--------------4---------------4-------4-------------------|
F|--------------------------------3-0-3---0--1--3--4~-------|
C|-5------5-6-8---------------------------------------------|
G|----------------------------------------------------------|
C|----------------------------------------------------------|  x2
"Tell us.."


D|----------------------------------------------------------|
A|----------------------------------------------------------|
F|-5~-------------------------------------------------------|
C|----------------------------------------------------------|
G|----------------------------------------------------------|
C|----------------------------------------------------------|
Last note before the piano kicks in again


Go back to tablature