Exogenesis: Symphony Pt. 1 Overture (tablature)

MuseWiki, wiki for the band Muse
Jump to: navigation, search

100% correct.
Tabbed by DSpek


Matt Bellamy, MUSE
Exogenesis, Symphony Part 1: Overture

Guitar #1 - Solo, Outro
Slightly Distorted/Crunch Amp(Higher Mid's) + Slight Tube Screamer OR Fuzz
LOTS of reverb and echo
Bridge pickup, preferably a hot pickup

Transcribed by DSpek

===========================================================

 Strings Section: (Alternate pick each note amount of times you think is required after listening to song)

E||-11----12----13----14----12---------------16----12-------------14----12-------------16--|
B||------------------------------------14-------------------14-------------------14--------|
G||---------------------------------14----14-------------14----14-------------14----14-----|
D||----------------------------------------------------------------------------------------|
A||----------------------------------------------------------------------------------------|
D||----------------------------------------------------------------------------------------|

E||-12-------------13----14-------------17----13-------------13----14-------------17-------|
B||----------14-------------------14-------------------13-------------------14-------------|
G||-------14----14-------------15----15-------------14----14-------------15----15----------|
D||----------------------------------------------------------------------------------------|
A||----------------------------------------------------------------------------------------|
D||----------------------------------------------------------------------------------------|

E||-13-------------12----13-------------12-----------------13-------------13---12----------|
B||----------13-------------------13-----------------13-------------13---------------------|
G||-------14----14-------------14----14-----------14----14-------14----14------------------|
D||----------------------------------------------------------------------------------------|
A||----------------------------------------------------------------------------------------|
D||----------------------------------------------------------------------------------------|

E||-11----------18--------21----------22---------21-------18--------17---------------------|
B||-------13-------------------------------------------------------------------------------|
G||----------------------------------------------------------------------------------------|
D||----------------------------------------------------------------------------------------|
A||----------------------------------------------------------------------------------------|
D||----------------------------------------------------------------------------------------|



Tempo: 80bpm

     W                   H         H          
E||-------------------|----------------------|
B||-------------------|----------------------|
G||-------------------|----------------------|
D||-------------------|----------------------|
A||-------------------|----------------------|
D||--0----------------|--3~--------6~--------|


  Q.      T T T T T T T T T T T T T T T T T T T T  
--------------------------------------------------|
--------------------------------------------------|
--------------------------------------------------|
----------------------------------7-7-7-7-7-7-7-7-|
--------------------------------------------------|
--7~------7-7-7-7-7-7-7-7-7-7-7-7-7-7-7-7-7-7-7-7-|


   3       |-3-|     |---3---|   |-3-|                                 
   Q.      E   Q     E   E   E   E   Q         Q     Q     Q     Q     
------------------------------------------|---------------------------|
--10------10--10----10--10--10--10--10----|--/11----11----11----11----|
------------------------------------------|---------------------------|
---7-------7---7-----7---7---7---7---7----|----8-----8-----8-----8----|
------------------------------------------|---------------------------|
---7-------7---7-----7---7---7---7---7----|---------------------------|


                           |--3--|  3                   3    
   H          H            E  E  E  W                   E    
------------------------|-----------------------------------|
------------------------|-----------------------------------|
--/7~--------/6~--------|--3--2--2--2~----------------<>2~--|
------------------------|-----------------------------------|
------------------------|-----------------------------------|
------------------------|-----------------------------------|


                                          TP        TP        
  3      |--3--|  |--3--|  |---3---|                          
  Q.     E  E  E  E  E  E  E   E   E      H         H         
--------------------------------------|----------------------|
------------------------------10--12--|--13--------13--------| <- TREMOLO PICK THESE HIGH NOTES
--L-----------------------------------|----------------------|
--------------------------------------|----------------------|
--------------------------------------|----------------------|
---------0-----2-----3-----6----------|----------------------|


   TP        TP           TP  TP  TP             TP        
                          |---3---|   |---3--|             
   H         H            E   E   E   Q      E   H         
----------------------|-----------------------------------|
--13--------13--------|--13--13--13--13s----11--11--------| <- TREMOLO PICK ALL OF THESE ASWELL
----------------------|-----------------------------------|
----------------------|-----------------------------------|
----------------------|-----------------------------------|
----------------------|-----------------------------------|


   TP        TP  TP  TP                   TP     TP          TP                
             |---3---|   |---3--|                                              
   H         E   E   E   Q      E      E  Q.     H           W                 
------------------------------------|---------------------|-------------------|
--11--------11--11--11--11s----10s--|--8--8------8--------|--8----------------| <- and again...
------------------------------------|---------------------|-------------------|
------------------------------------|---------------------|-------------------|
------------------------------------|---------------------|-------------------|
------------------------------------|---------------------|-------------------|


  TP                  \4/                                    
  W                   W                   W                  
-------------------|-------------------|--------------------|
--8----------------|-------------------|--------------------| <- and again... lmao
-------------------|-------------------|--------------------|
-------------------|-------------------|--------------------|
-------------------|--0----------------|--------------------| <- Play the 0, and drop to whammy bar 4 whole notes down, and slowly
-------------------|-------------------|--7~----------------| <- bring it back up to this 7~


  W                   W                    W                 
-------------------|--------------------|-------------------|
-------------------|--------------------|-------------------|
-------------------|--------------------|-------------------|
-------------------|--------------------|-------------------|
-------------------|--------------------|-------------------|
--L----------------|--7~----------------|--L----------------|


  W                    W                    W                  
--------------------|-------------------|---------------------|
--------------------|-------------------|---------------------|
--------------------|-------------------|---------------------|
--------------------|-------------------|---------------------|
--------------------|-------------------|---------------------|
--8~----------------|--L----------------|--11~----------------|


  W                   W                  
-------------------|-------------------||
-------------------|-------------------||
-------------------|-------------------||
-------------------|-------------------||
-------------------|-------------------||
--L----------------|--0----------------||


Live outro before Stockholm Syndrome (http://www.youtube.com/watch?v=WkS8fXMLMdE&feature=autoplay&list=PL0C2AC2C6E9542404&index=19&playnext=2):

E||--------------------------------------------------------------------------||
B||--------------------------------------------------------------------------||
G||--------------------------------------------------------------------------||
D||----0--------3--------7--------10--------12--------3--------7--------0----||
A||----0--------3--------7--------10--------12--------3--------7--------0----||
D||----0--------3--------7--------10--------12--------3--------7--------0----||


Duration Legend
---------------
W - whole
H - half
Q - quarter
E - 8th
S - 16th
T - 32nd
X - 64th
. - note dotted
|-n-|  - n-tuplets


Tablature Legend
----------------
L - tied note
x - dead note
g - grace note
(n) - ghost note
> - accentuded note
NH - natural harmonic
AH - artificial harmonic
TH - tapped harmonic
SH - semi harmonic
PH - pitch harmonic
h - hammer on
p - pull off
b - bend
br - bendRelease
pb - preBend
pbr - preBendRelease
brb - bendReleaseBend
\n/ - tremolo bar dip
\n - tremolo bar dive
-/n - tremolo bar Release up
/n\ - tremolo bar inverted dip
/n - tremolo bar return
-\n - tremolo bar Release down
S - shift slide
s - legato slide
/ -  slide into from below or out of upwards
\ -  slide into from above or out of downwards
~ - vibrato
W - wide vibrato
tr - trill
TP - tremolo picking
T - tapping
S - slap
P - pop
< - fade in
^ - brush up
v - brush down


Go back to tablature