Execution Commentary (tablature)

MuseWiki, wiki for the band Muse
Jump to: navigation, search
Muse Tab
Name Execution Commentary
Length 02:30
Tuning Drop-D
Tempo 130bpm
Timing 4/4

Guitar

Main riff (0:14)
e|-----------------------------|
B|-----------------------------|
G|-----------------------------|
D|-----------------------------|
A|-----------------------------|
D|-0-2-0-3-3-0-0-5-0-6--7-7-7--|

Second riff (0:47)
e|------------------------------------------------|
B|------------------------------------------------|
G|-----------------------------x-x--x---x---x-x---|
D|-----------------------------x-x--x---x---x-x---|
A|-----------------------------x-x--x---x---x-x---|
D|-0-2-0-3-0--5-3---0-2-0-3-0--x-x--x---x---x-x---|

Bass

Intro

G|---------------------------------------------------------------------------|
D|---------------------------------------------------------------------------|
A|------------------------0--------------------------------------------------|
D|-3-2-3-2-3--2-3-2-3-2-3---3--7-7-7-----------------------------------------|


Part 1

G|---------------------------------------------------------------------------|
D|---------------------------------------------------------------------------|
A|-0-2-0-3-00-5-0-6-777----16 times------------------------------------------|
D|---------------------------------------------------------------------------|


Part 2

G|---------------------------------------------------------------------------|
D|---------------------------------------------------------------------------|
A|-0-3-0-3-0-5-3-------------------------------------------------------------|
D|---------------------------------------------------------------------------|


G|---------------------------------------------------------------------------|
D|---------------------------------------------------------------------------|
A|-0-3-0-3-0-----------------------------------------------------------------|
D|---------------------------------------------------------------------------|

G|---------------------------------------------------------------------------|
D|---------------------------------------------------------------------------|
A|-0-3-0-3-0-5-3-------------------------------------------------------------|
D|---------------------------------------------------------------------------|

G|---------------------------------------------------------------------------|
D|---------------------------------------------------------------------------|
A|-0-3-0-3-0-----------------------------------------------------------------|
D|---------------------------------------------------------------------------|

G|---------------------------------------------------------------------------|
D|---------------------------------------------------------------------------|
A|-0-3-0-3-0-543-0-3-0-3-0---------------------------------------------------|
D|---------------------------------------------------------------------------|

Repeat part 1 and then part 2.


Go back to tablature