Escape (tablature)

MuseWiki, wiki for the band Muse
Jump to: navigation, search
Muse Tab
Name Escape
Length 03:31
Tuning Standard
Tempo 76bpm
Timing 4/4

Guitar

Intro:

e|---------------------------------------0----------------------------|
B|-----3--------3----2---2---0---0-------3--------3----2---2---0---0--|
G|-----2--------2----0---0---0---0-------2--------2----0---0---0---0--|
D|--0---------0---0----0---0---0---0--0---------0---0----0---0---0---0|
A|--------------------------------------------------------------------|
E|--------------------------------------------------------------------|


Verse:

e|--------------------------------------------------------------------|
B|-----3--------3----2---2---0---0-------3--------3----2---2---0---0--|
G|-----2--------2----0---0---0---0-------2--------2----0---0---0---0--|
D|--0---------0---0----0---0---0---0--0---------0---0----0---0---0---0|
A|--------------------------------------------------------------------|
E|--------------------------------------------------------------------|

e|--------------------------------------------------------------------|
B|-----3--------3----2---2---0---0-------3--------3----2---2---0---0--|
G|-----2--------2----0---0---0---0-------2--------2----0---0---0---0--|
D|--0---------0---0----0---0---0---0--0---------0---0----0---0---0---0|
A|--------------------------------------------------------------------|
E|--------------------------------------------------------------------|

e|--------------------------------------------------------------------|
B|----------2----------------2----------------3----------------3------|
G|------3-----3---3------3-----3---3------4-----4---4------4-----4---4|
D|----4---4-----4------4---4-----4------4---4-----4------4---4-----4--|
A|------------------------------------2----------------0--------------|
E|--2----------------2------------------------------------------------|

e|--------------------------------------------------------------------|
B|----------0----------------0----------------3----------------2------|
G|------4-----4---4------4-----4---4------4-----4---4------3-----3---3|
D|----4---4-----4------4---4-----4------4---4-----4------4---4-----4--|
A|--------------------------------------------------------------------|
E|--4----------------3----------------2----------------2--------------|

e|--------------------------------------------------------------------|
B|----------2----------------2----------------3----------------3------|
G|------3-----3---3------3-----3---3------4-----4---4------4-----4---4|
D|----4---4-----4------4---4-----4------4---4-----4------4---4-----4--|
A|------------------------------------2----------------0--------------|
E|--2----------------2------------------------------------------------|

e|----------------------------------------------0------4--------------|
B|----------0----------------0--------------------3----4--------------|
G|------4-----4---4------4-----4---4----------------4--5--------------|
D|----4---4-----4------4---4-----4---------------------6--------------|
A|-----------------------------------------------------6--------------|
E|--4----------------3----------------2----------------4--------------|


Chorus:

e|--------------------------------------------------------------------|
B|--------------------------------------------------------------------|
G|------7-----7-6-4-----------------------7-----7-6-4-----------------|
D|--------------------------------------------------------------------|
A|--9-9--------------5-5-5-5-5-5-5-5--9-9--------------5-5-5-5-5-5-5-5|
E|--7-7--------------3-3-3-3-3-3-3-3--7-7--------------3-3-3-3-3-3-3-3|

e|----------7---------------------------------------------------------|
B|------5b7---7r5-3-----------------------5b7-7-7r5-3-----------------|
G|--------------------------------------------------------------------|
D|--------------------------------------------------------------------|
A|--9-9--------------5-5-5-5-5-5-5-5--9-9--------------5-5-5-5-5-5-5-5|
E|--7-7--------------3-3-3-3-3-3-3-3--7-7--------------3-3-3-3-3-3-3-3|


Verse 2:

e|--------------------------------------------------------------------|
B|--------------------------------------------------------------------|
G|--------------------------------------------------------------------|
D|--7-7-7-7-7-7-7-7---------------------------------------------------|
A|--5-5-5-5-5-5-5-5--5-5-5-5-5-5-5-5--4-4-4-4-4-4-4-4--5-5-5-5-5-5-5-5|
E|-------------------3-3-3-3-3-3-3-3--2-2-2-2-2-2-2-2--3-3-3-3-3-3-3-3|

e|--------------------------------------------------------------------|
B|--------------------------------------------------------------------|
G|--------------------------------------------------------------------|
D|--7-7-7-7-7-7-7-7---------------------------------------------------|
A|--5-5-5-5-5-5-5-5--5-5-5-5-5-5-5-5--4-4-4-4-4-4-4-4--5-5-5-5-5-5-5-5|
E|-------------------3-3-3-3-3-3-3-3--2-2-2-2-2-2-2-2--3-3-3-3-3-3-3-3|

e|--------------------------------------------------------------------|
B|------------------------------------------0----------0--------------|
G|--3-------6--------6b7r6-4-6b7r6-4--4---------4--------------3h4p3--|
D|---------------------------------------4---------4------------------|
A|--------------------------------------------------------------------|
E|--------------------------------------------------------------------|

e|--------------------------------------------------------------------|
B|--------------------------------------------------------------------|
G|--3-------6--------7----------------4----------------4---------3-3--|
D|--------------------------------------------------------------------|
A|--------------------------------------------------------------------|
E|--------------------------------------------------------------------|


Bridge:

Gtr. 1
e|--------------------------------------------------------------------|
B|--------------------------------------------------------------------|
G|--------------------------------------------------------------------|
D|--------------------------------------------------------------------|
A|--9-9--------------5-5-5-5-5-5-5-5--9-9--------------5-5-5-5-5-5-5-5|
E|--7-7--------------3-3-3-3-3-3-3-3--7-7--------------3-3-3-3-3-3-3-3|

Gtr. 2
e|--------------------------------------------------------------------|
B|/7-7-7-7-7-7-7-7-------------------/7-7-7-7-7-7-7-7-----------------|
G|-------------------4/7-7---4/7-7-9-------------------4/6-7-9--------|
D|--------------------------------------------------------------------|
A|--------------------------------------------------------------------|
E|--------------------------------------------------------------------|

Gtr. 1
e|-----10-10--10-10---------------------------------------------------|
B|-----10-10--10-10---------------------------------------------------|
G|--------------------------------------------------------------------|
D|--------------------------------------------------------------------|
A|--9-9--------------5-5-5-5-5-5-5-5--9-9--------------5-5-5-5-5-5-5-5|
E|--7-7--------------3-3-3-3-3-3-3-3--7-7--------------3-3-3-3-3-3-3-3|

Gtr. 2
e|--------------------------------------------------------------------|
B|------------------------------------7-7-7-7-7-7-7-7-----------------|
G|9b11r9b11r9b11r9-----------------------------------------4/7-7-9-7--|
D|-------------------9-9-9-9-9-9-9-9----------------------------------|
A|--------------------------------------------------------------------|
E|--------------------------------------------------------------------|


Interlude:
Gtr. 1
e|--------------------------------------------------------------------|
B|-----3--------3----2---2---0---0-------3--------3----2---2---0---0--|
G|-----2--------2----0---0---0---0-------2--------2----0---0---0---0--|
D|--0---------0---0----0---0---0---0--0---------0---0----0---0---0---0|
A|--------------------------------------------------------------------|
E|--------------------------------------------------------------------|

Gtr. 2 (fade out)
e|-------10---10-10--10-10-10-----------------------------------------|
B|-------10---10-10--10-10-10-----------------------------------------|
G|--------------------------------------------------------------------|
D|--------------------------------------------------------------------|
A|--------------------------------------------------------------------|
E|--------------------------------------------------------------------|

e|----------------------------------------------------------------------0|
B|-----3--------3----2---2---0---0-------3--------3----2---2---0---0----3|
G|-----2--------2----0---0---0---0-------2--------2----0---0---0---0----2|
D|--0---------0---0----0---0---0---0--0---------0---0----0---0---0---0--0|
A|-----------------------------------------------------------------------|
E|-----------------------------------------------------------------------|

Back to Tablature