Easily (tablature)

MuseWiki, wiki for the band Muse
Jump to: navigation, search
Muse Tab
Name Easily
Length 03:40
Tuning Standard
Tempo 120bpm
Timing 4/4

Guitar


e|---------------------------------------------------------------------------------------------|
B|---------------------------------------------------------------------------------------------|
G|---------------------------------------------------------------------------------------------|
D|--7-------7---5---------5---5-------------------3------3---2---------2---2-------------------|
A|-----------------3----3---3---3-------------------5--5---5---0-----0---0---0-----------------|
E|----5---5---5--------------------3-3-3-3-3-3-3--------------------------------0-0-0-0-0-0-0--|


Solo:
e|---------------------------------------------------------|
B|--x------------------------------------------------------|
G|--x------------------------------------------------------|
D|--x------------------------------------------------------|
A|----------12--14--15---17--------17br--15----------------|
E|----------------------------15---------------------------|

e|----------------------------------------------------|
B|----------------------------------------------------|
G|----------------------------------------------------|
D|----------------------------------------------------|
A|--------12--15----14--------------15br--14----------|
E|---------------------------12-----------------------|

e|-----------------------------------------------|
B|-----------------------------------------------|
G|-----------------------------------------------|
D|----------------------------------15br--14-----|
A|----------12--14--15----15---------------------|
E|-----------------------------12----------------|

e|---------------------------------------------|
B|------------------------------5---5---5------|
G|------------------------------7b--7b--7b-----|
D|-----------12--------------------------------|
A|-----------------15--------------------------|
E|---------------------------------------------|

e|--12-----------------12\10-10---------------10/13-13-------|
B|------13----------------------12---------------------13----|
G|----------14----------------------12--------------------14-|
D|-----------------------------------------------------------|
A|-----------------------------------------------------------|
E|-----------------------------------------------------------|

e|---13\12-12------------12/17-17-------------17\15-15-------|
B|------------12------------------18-------------------17----|
G|---------------13------------------19-------------------17-|
D|-----------------------------------------------------------|
A|-----------------------------------------------------------|
E|-----------------------------------------------------------|

e|-15/20-20-----------------19br--16---13--------12----------|
B|----------22-----------------------------------------------|
G|-------------22--------------------------------------------|
D|-----------------------------------------------------------|
A|-----------------------------------------------------------|
E|-----------------------------------------------------------|

Vocal starts again
All notes are now Tremolo picked
e|--10---------------8----10--8--------------7--8----7---------------7--|
B|----------------------------------------------------------------------|
G|----------------------------------------------------------------------|
D|----------------------------------------------------------------------|
A|----------------------------------------------------------------------|
E|----------------------------------------------------------------------|

e|--10--------8-----------7------------------12--------10-8-10--8-----8-10-|
B|-------------------------------------------------------------------------|
G|-------------------------------------------------------------------------|
D|-------------------------------------------------------------------------|
A|-------------------------------------------------------------------------|
E|-------------------------------------------------------------------------|

e|--8--7-------7--------7--8----5---------5--7----5----8--------7---------|
B|------------------------------------------------------------------------|
G|------------------------------------------------------------------------|
D|------------------------------------------------------------------------|
A|------------------------------------------------------------------------|
E|------------------------------------------------------------------------|

e|--12------10-12-15----------10--8-------7--------7--8--|
B|-------------------------------------------------------|
G|-------------------------------------------------------|
D|-------------------------------------------------------|
A|-------------------------------------------------------|
E|-------------------------------------------------------|

e|--10----------------8--10---12--------7-----|
B|--------------------------------------------|
G|--------------------------------------------|
D|--------------------------------------------|
A|--------------------------------------------|
E|--------------------------------------------|

Chords

 
Intro
Am G F E Dm C F E

Verse 1
Am            G            F
    Let your inhibitions go
             E
Make every touch electrical
Dm                C              F
    When you're feeling beautiful
            E
Will you remember me?

Am              G                  F
    I want to touch you deep inside
               E
And find the secrets that you hide
Dm             C                 F
    When you fears are cast aside
            E           Am
Will you remember me?

Chorus
Am G      F   E
Easily forgotten love
Am G      F   E
Easily forgotten love
It's not so easily

Verse 2
Am           G                 F
    I just want to let you know
            E
My mind refuses to let you go
Dm            C             F
    I wanna hypnotise you so
            E          Am
You will remember me

Chorus
Am G      F   E
Easily forgotten love
Am G      F   E
Easily forgotten love
It's not so easily

Solo
Am G F E Dm C F E x2

Chorus
Am G      F   E
Easily forgotten love
Am G      F   E
Easily forgotten love
Am G        F           E
Easily the best I ever had
Am G        F           E      Am
Easily the best I ever had


Go back to tablature