Dead Inside (tablature)

MuseWiki, wiki for the band Muse
Jump to: navigation, search

Guitar tab


Tabbed by Priad-luabe

Tuning: CADGBE

DEAD INSIDE!
(bass/synths arr. for guitar)

(sounds better using a whammy/pitch shift pedal +1ve)
E|------------------------/8
B|------------------------/8
G|------------------------/8
D|--------------------------
A|--------------------------
C|--------------------------

Verse:

E|-----------------------------------------------
B|-----------------------------------------------
G|-5---5---------5---5-------8---8-------3---3---
D|-----------------------------------------------  (x4)
A|3-3-3-3-3---3-3-3-3-3-3---6-6-6-6-6---1-1-1-1-1
C|-----------------------------------------------

Chorus:

(palm muted)

E|15-15----15----15-15----15----15-15-13-15-13-15-15-13-15-13-15-15-11-15-11-15-15-11-15-11-15-15-10-15-10-15-15-10-15-10
B|------13----13-------13----13------------------------------------------------------------------------------------------
G|-----------------------------------------------------------------------------------------------------------------------
D|-----------------------------------------------------------------------------------------------------------------------
A|-----------------------------------------------------------------------------------------------------------------------
C|-----------------------------------------------------------------------------------------------------------------------

E|15-15----15----15-15----15----15-15-13-15-13-15-15-13-15-13-15-15-13-15-13-15-15-13-15-13-15-15-11-15-11-15-15-10-15-10
B|------13----13-------13----13------------------------------------------------------------------------------------------
G|-----------------------------------------------------------------------------------------------------------------------
D|-----------------------------------------------------------------------------------------------------------------------
A|-----------------------------------------------------------------------------------------------------------------------
C|-----------------------------------------------------------------------------------------------------------------------

Guitar Solo:

E|-------------------------------------------------
B|--8--------------------------4---4--4--4---------
G|--10b(12)--------------------6b8r7--5--3-3-3tr5--
D|----------------------7b-------------------------
A|------------------6p0----------------------------
C|--------0-0-3p0-7--------------------------------

E|------------------------------------------------------------------
B|x-x-8-------------------------------------16----15----13----11----
G|x-x-10b(12)----------------------14b15----19b20-18b19-16b17-14b15-
D|--------------------12h13p12--------------------------------------
A|-----------------------------15p0---------------------------------
C|-----------0-0-12p0-----------------------------------------------

Verse:

(palm muted)

E|-------------------------------------------------------------------------------
B|4-4---4---4-4---4---4-4---4---4-4---4---4-4---4---4-4---4---4-4---4---3-3---3--
G|----5---5-----5---5-----5---5-----5---5-----3---3-----3---3-----3---3-----3---3
D|-------------------------------------------------------------------------------  (x4)
A|-------------------------------------------------------------------------------
C|-------------------------------------------------------------------------------

Chorus:

(palm muted)

E|15-15----15----15-15----15----15-15-13-15-13-15-15-13-15-13-15-15-11-15-11-15-15-11-15-11-15-15-10-15-10-15-15-10-15-10
B|------13----13-------13----13------------------------------------------------------------------------------------------
G|-----------------------------------------------------------------------------------------------------------------------
D|-----------------------------------------------------------------------------------------------------------------------
A|-----------------------------------------------------------------------------------------------------------------------
C|-----------------------------------------------------------------------------------------------------------------------

E|15-15----15----15-15----15----15-15-13-15-13-15-15-13-15-13-15-15-13-15-13-15-15-13-15-13-15-15-11-15-11-15-15-10-15-10
B|------13----13-------13----13------------------------------------------------------------------------------------------
G|-----------------------------------------------------------------------------------------------------------------------
D|-----------------------------------------------------------------------------------------------------------------------
A|-----------------------------------------------------------------------------------------------------------------------
C|-----------------------------------------------------------------------------------------------------------------------

Bridge:
(sounds better using a whammy/pitch shift pedal +1ve)
E|------------------------/8
B|------------------------/8
G|------------------------/8
D|--------------------------
A|--------------------------
C|--------------------------

Guitar kicks in (let ring)
E|-------------------------------
B|-------------------------------
G|---(5)-----(5)----(8)----(7)---
D|----5-------6------8------8----
A|----3-------3------6------5----
C|-------------------------------

E|-------------------------------
B|-------------------------------
G|----5-------5--/7--8----8--7---
D|----5-------6--/8--8----8--8---
A|----6-------6--/8--10---8--8---
C|-------------------------------

(play the above twice)

E|--------------------------------
B|--------------------8-----------
G|----8-------8---10-(8)---8--7---
D|----5-------6---6---8----8--8---
A|-------------------------8--8---
C|--------------------------------

E|-------------------------10-----
B|----8-------9---9---11---11-----
G|----8-------8---8---8----10-----
D|----8-------8---6---8-----------
A|--------------------------------
C|--------------------------------


My lips are arm to touch...

E|11-10-11-10
B|13-13-13-13
G|13-13-12-12
D|-----------
A|-----------
C|-----------

You taught me to lie...

E|11-10-11-11
B|13-12-13-13
G|13-12-12-12
D|-----------
A|-----------
C|-----------

On the outside i'm the greatest guy...

E|11-10-13-11
B|13-12-13-13
G|13-12-13-12
D|-----------
A|-----------
C|-----------


Credit to Doog, Hairy Muser, Ethan, Dominic & Dillyracer on the .mu board