Citizen Erased (tablature)

MuseWiki, wiki for the band Muse
Jump to: navigation, search
Muse Tab
Name Citizen Erased
Length 07:21
Tuning AADGBe (studio) / AADDGBe (Live on the 7 String E Manson)
Tempo 92bpm
Timing 4/4

Guitar

Intro:
The harmonic marked "2*" is halfway between the second and third frets
The harmonic marked "3*" is a little above the third fret

e|----------------------------------------------------------------|
B|----------------------------------------------------------------|
G|----------------------------------------------------------------|
D|----------------------------------------------------------------|
A|------2*-0-2*-2*-0-2*-2*-0-2*-----2*-0-2*-2*-0-2*-2*-0-2*-------|
A|--0-0-------------------------0-0-------------------------------|

e|----------------------------------------------------------------|
B|----------------------------------------------------------------|
G|----------------------------------------------------------------| x2
D|----------------------------------------------------------------|
A|------3*-0-3*-3*-0-3*-3*-0-3*------3*-0-3*-3*-0-3*-3*-0-3*------|
A|--0-0-------------------------0-0-------------------------------|

e|----------------------------------------------------------------|
B|----------------------------------------------------------------|
G|----------------------------------------------------------------|
D|----------------------------------------------------------------|
A|------3*-0-3*---------------------------------------------------|
A|--0-0-----------------------------------------------------------|

e|----------------------------------------------------------------|
B|----------------------------------------------------------------|
G|----------------------------------------------------------------|
D|----------------------------------------------------------------|
A|--0-0-12-0-12-12-0-12-12-0-12---0-0-10-0-10-10-0-10-10-0-10-----|
A|--0-0-12-0-12-12-0-12-12-0-12---0-0-10-0-10-10-0-10-10-0-10-----|

e|----------------------------------------------------------------|
B|----------------------------------------------------------------|
G|----------------------------------------------------------------|
D|----------------------------------------------------------------|
A|--0-0-8-0-8-8-0-8-8-0-8---0-0-7-0-7-7-0-7-7-0-7-----------------|
A|--0-0-8-0-8-8-0-8-8-0-8---0-0-7-0-7-7-0-7-7-0-7-----------------|

Verse:

e|---------------------------------------------|
B|---------------------------------------------|
G|---------------------------------------------|
D|---------------------------------------------|
A|--0-12-12-0-12-12-0-12-0-12-12-0-12-0-12-12--|
A|---------------------------------------------|

e|---------------------------------------------|
B|---------------------------------------------|
G|---------------------------------------------|
D|---------------------------------------------|
A|--0-14-14-0-14-14-0-14-0-14-14-0-14-0-14-14--|
A|---------------------------------------------|

e|---------------------------------------------|
B|---------------------------------------------|
G|---------------------------------------------|
D|---------------------------------------------|
A|--0-15-15-0-15-15-0-15-0-15-15-0-15-0-15-15--|
A|---------------------------------------------|

e|---------------------------------------------|
B|---------------------------------------------|
G|---------------------------------------------|
D|---------------------------------------------|
A|--0-17-17-0-17-17-0-17-0-17-17-0-17-0-17-17--|
A|---------------------------------------------|

e|---------------------------------------------|
B|---------------------------------------------|
G|---------------------------------------------|
D|---------------------------------------------|
A|--0-15-15-0-15-15-0-15-0-15-15-0-15-0-15-15--|
A|---------------------------------------------|

e|------------------------------------------------------|
B|------------------------------------------------------|
G|------------------------------------------------------|
D|------------------------------------------------------|
A|--12-14-14-12-14-14-12-14-12-12-14-14-12-14-12-14-12--|
A|------------------------------------------------------|

e|------------------------------------------------------|
B|------------------------------------------------------|
G|------------------------------------------------------|
D|------------------------------------------------------|
A|--0-12-12-0-12-12-0-12-0-12-0-12-12-0-12-0-12/10------|
A|------------------------------------------------------|

e|------------------------------------------|
B|------------------------------------------|
G|------------------------------------------|
D|------------------------------------------|
A|--0-11-0-11-11-0-11-0-11-11-0-11-0-11-0---|
A|------------------------------------------|


e|-----------------------------------------------------------------------|
B|-----------------------------------------------------------------------|
G|-------2---2-2-2-2-2-2-2-2-2------4---4-4-4-4-4-4-4-4-4----------------|
D|-------x---x-x-x-x-x-x-x-x-x------x---x-x-x-x-x-x-x-x-x----------------|
A|-------0---0-0-0-0-0-0-0-0-0------2---2-2-2-2-2-2-2-2-2----------------|
A|-----------------------------------------------------------------------|

e|-----------------------------------------------------------------------|
B|-----------------------------------------------------------------------|
G|------5---5-5-5-5-5-5-5-5-5------7---7-7-7-7-7-7-7-7-7-----------------| X 2 (Both staffs)
D|------x---x-x-x-x-x-x-x-x-x------x---x-x-x-x-x-x-x-x-x-----------------|
A|------3---3-3-3-3-3-3-3-3-3------5---5-5-5-5-5-5-5-5-5-----------------|
A|-----------------------------------------------------------------------|

e|------------------------------------------------------------------------|
B|------------------------------------------------------------------------|
G|--------------------5-5-5-5-5-5-5-5-------------------------------------|
D|--7-7-7-7-7-7-7-7-5-5-5-5-5-5-5-5-6-6-6-6-6-6-6-6-7-7-7-7---------------|
A|--8-8-8-8-8-8-8-8-3-3-3-3-3-3-3-3-7-7-7-7-7-7-7-7-0-0-0-0---------------|
A|--8-8-8-8-8-8-8-8-3-3-3-3-3-3-3-3-7-7-7-7-7-7-7-7-0-0-0-0---------------|

e|-----------------------------------------------------------------------|
B|-----------------------------------------------------------------------|
G|---------------10-10-10-10-10-10-10-10----5-5-5-5-5-5-5-5--------------|
D|---9--9--9--9--10-10-10-10-10-10-10-10----5-5-5-5-5-5-5-5--------------|
A|---10-10-10-10-8--8--8--8--8--8--8--8-------3-3-3-3-3-3-3--------------|
A|---10-10-10-10-8--8--8--8--8--8--8--8-------3-3-3-3-3-3-3--------------|

e|-----------------------------------|
B|-----------------------------------|
G|-----------------------------------|
D|--9-9-9-9-9-9-9-9-9-9-9-9-9-9-9-9--|
A|--7-7-7-7-7-7-7-7-7-7-7-7-7-7-7-7--|
A|--7-7-7-7-7-7-7-7-7-7-7-7-7-7-7-7--|


Chorus:

e|----------1---------------0---1------------0-------------0-------0------|
B|------1-------1-------1-----0---0------0-------0------1----1---1---1----|
G|----2---2---2---2---0---0------------1---1---1---1-2---------0----------| X 3
D|--3----------------2---------------2------------------------------------|
A|------------------------------------------------------------------------|
A|------------------------------------------------------------------------|

e|-----------1---------------0-------------------|
B|-------1-------1-------1-------1---------------|
G|----2----2---2---2---0---0---0---0-------------|
D|--3----------------2-----------------------9---|
A|-------------------------------------------7---|
A|-------------------------------------------7---|


Refrain:

e|-------5-----8-----7-----6-----5-----5----4-----3----------3------------|
B|---------5-----5-----5-----5-----3-----3----3-----3------3---3----------|
G|--2/5------5-----5-----5-----5-----5-----5----5-----5-4-----------------|
D|------------------------------------------------------------------------|
A|------------------------------------------------------------------------|
A|------------------------------------------------------------------------|

e|--------3------2------1------2-----3-------4--------4-------------------|
B|-----1----1------1------1------1-----1---3----3---3---3------3----------|
G|--2---------2------2------2------2-----4--------4----------4------4-----|
D|-----------------------------------------------------------3------2-----|
A|------------------------------------------------------------------------|
A|------------------------------------------------------------------------|

e|-------5------6------7------8------7--------7------8------9-------------|
B|-----5---5------5------5------5------0----8---8------8------8-----------|
G|---5-------5------5------5------5------7--------7------7------7---------|
D|------------------------------------------------------------------------|
A|------------------------------------------------------------------------|
A|------------------------------------------------------------------------|

The second verse is all synth and drums.

This comes in as Matt sings "For one moment..."

e|--------8-------9--------10---------11---------12-----------12----------|
B|-----10---10------10--------10---------10---------10------9-------------|
G|--10---------10------10--------10---------10---------9------------------|
D|---------------------------------------------------------------9--------|
A|------------------------------------------------------------------------|
A|------------------------------------------------------------------------|

e|------------------------------------------------------------------------|
B|--------------------0-0-0-0-0-0-0-0-0-----------------------------------|
G|--1-1-1-1-1-1-1-1-1-1-1-1-1-1-1-1-1-------------------------------------|
D|--2-2-2-2-2-2-2-2-2-2-2-2-2-2-2-2-2-------------------------------------|
A|------------2-2-2-2-2-2-2-2-2-2-2-2-2-----------------------------------|
A|------------------------------------------------------------------------|


Solo:

e|----------------------------------------------------------------|
B|----------------------------------------------------------------|
G|----------------------------------------------------------------|
D|----------------------------------------------------------------|
A|------2*-0-2*-2*-0-2*-2*-0-2*-----2*-0-2*-2*-0-2*-2*-0-2*-------|
A|--0-0-------------------------0-0-------------------------------|

e|----------------------------------------------------------------|
B|----------------------------------------------------------------|
G|----------------------------------------------------------------|
D|----------------------------------------------------------------|
A|------3*-0-3*-3*-0-3*-3*-0-3*-----3*-0-3*-0---------------------|
A|--0-0-------------------------0-0-----------5/19\5/15\5---------|

e|----------------------------------------------------------------|
B|----------------------------------------------------------------|
G|----------------------------------------------------------------|
D|----------------------------------------------------------------|
A|------2*-0-2*-2*-0-2*-2*-0-2*-----2*-0-2*-2*-0-2*-2*-0-2*-------|
A|--0-0-------------------------0-0-------------------------------|

e|----------------------------------------------------------------|
B|----------------------------------------------------------------|
G|----------------------------------------------------------------|
D|----------------------------------------------------------------|
A|------3*-0-3*-3*-0-3*-3*-0-3*-----------------------------------|
A|--0-0-------------------------0-0-------------------------------|

Glastonbury '04:

e|----------------------------------------------------------------|
B|----------------------------------------------------------------|
G|----------------------------------------------------------------|
D|----------------------------------------------------------------|
A|----------------------------------------------------------------|
A|--0-3-0-5-0-7-0-7-10-7--0-12-0-10-7~-5-3-5b7b5h3----------------|

e|----------------------------------------------------------------|
B|----------------------------------------------------------------|
G|----------------------------------------------------------------|
D|----------------------------------------------------------------|
A|----------------------------------------------------------------|
A|--0-3-0-5-0-7-0-7-10-7--0-12-0-10-7~-5-3-5b7b5h3----------------|

e|----------------------------------------------------------------|
B|----------------------------------------------------------------|
G|----------------------------------------------------------------|
D|----------------------------------------------------------------|
A|--0-0-12-0-12-12-0-12-12-0-12---0-0-10-0-10-10-0-10-10-0-10-----|
A|--0-0-12-0-12-12-0-12-12-0-12---0-0-10-0-10-10-0-10-10-0-10-----|

e|----------------------------------------------------------------|
B|----------------------------------------------------------------|
G|----------------------------------------------------------------|
D|----------------------------------------------------------------|
A|--0-0-8-0-8-8-0-8-8-0-8---0-0-7-0-7-7-0-7-7-0-7-----------------|
A|--0-0-8-0-8-8-0-8-8-0-8---0-0-7-0-7-7-0-7-7-0-7-----------------|

e|---------------------------------------------|
B|---------------------------------------------|
G|---------------------------------------------|
D|---------------------------------------------|
A|--0-12-12-0-12-12-0-12-0-12-12-0-12-0-12-12--|
A|---------------------------------------------|

e|---------------------------------------------|
B|---------------------------------------------|
G|---------------------------------------------|
D|---------------------------------------------|
A|--0-14-14-0-14-14-0-14-0-14-14-0-14-0-14-14--|
A|---------------------------------------------|

e|---------------------------------------------|
B|---------------------------------------------|
G|---------------------------------------------|
D|---------------------------------------------|
A|--0-15-15-0-15-15-0-15-0-15-15-0-15-0-15-15--|
A|---------------------------------------------|

e|---------------------------------------------|
B|---------------------------------------------|
G|---------------------------------------------|
D|---------------------------------------------|
A|--0-17-17-0-17-17-0-17-0-17-17-0-17-0-17~~---|
A|---------------------------------------------|

e|------------------------------------------------------------------------|
B|------------------------------------------------------------------------|
G|-----------9b10--11b12-13b14-13~-13-13-14-14-14-14-14-------------------|
D|------------------------------------------------------------------------|
A|------------------------------------------------------------------------|
A|------------------------------------------------------------------------|

e|------------------------------------------------------------------------|
B|------------------------------------------------------------------------|
G|--16-16-16-16-16-16-16-16-16-16b17-19-19-19-19b21-----------------------|
D|------------------------------------------------------------------------|
A|------------------------------------------------------------------------|
A|------------------------------------------------------------------------|

e|------------------------------------------------------------------------|
B|------------------------------------------------------------------------|
G|--17-16-17-16-14-14-21b23-23b24-20-17-20-20-20b22--2~h0h2h0h2h0h2h0h2~s1|
D|------------------------------------------------------------------------|
A|------------------------------------------------------------------------|
A|------------------------------------------------------------------------|

Interlude:

e|-------------------------------------------0~*---------------------------|
B|----------------------------------------0--------------------------------|
G|-------2--2b4---4~----0-4b6r4-2-1----------------------------------------| X2
D|--9------------0-------------------------------2b3-----------------------|
A|--7----------------------------------------------------------------------|
A|--7----------------------------------------------------------------------|

e|--0---------------------------------------------------------------------|
B|------------------------------------------------------------------------|
G|---------4/5------------------------------------------------------------|
D|----1/2-----------------------------------------------------------------|
A|------------------------------------------------------------------------|
A|------------------------------------------------------------------------|


Outro:

This is the little bit he plays inbetween these appregios on the live version

|-----------------------------0----------------------------------0----------|
|---------------------------0-----------------------------------0-----------|
|--2--2/4--0--4b5-4b5-4-2-1------2---2---2/4-0--4b5-4b5-4--2--1-----1h2-----|
|----------------------------------2---3-------------------------------1h2--|
|---------------------------------------------------------------------------|
|---------------------------------------------------------------------------|


e|--0-------0-------0-------0-------0--------0-------0--------------------|
B|----5---5---5---5---5---5---5---5---5---5----3---3---3---3--------------|
G|------5-------5-------5-------5-------5--------4-------4----------------|
D|------------------------------------------------------------------------|
A|------------------------------------------------------------------------|
A|------------------------------------------------------------------------|

e|--0-------0-------0-------0-------0-------------------------------------|
B|----3---3---3---3---1---1---1---0---------------------------------------|
G|------4-------4-------2-------1-----------------------------------------|
D|------------------------------------------------------------------------|
A|------------------------------------------------------------------------|
A|------------------------------------------------------------------------|


Go back to tablature