Cave (tablature)

MuseWiki, wiki for the band Muse
Jump to: navigation, search
Muse Tab
Name Cave
Length 04:45
Tuning Standard
Tempo 120bpm
Timing 4/4

Guitar

e|---x-x-x-x--------x-x-x-x-x-x-x--------x-x---x-x-x-x-x---------x-x-x-x-x-x----|
B|---x-x-x-x--------x-x-x-x-x-x-x--------x-x---x-x-x-x-x-5^------x-x-x-x-x-x----|
G|---x-x-x-x-7------x-x-x-x-x-x-x-7------x-x---x-x-x-x-x-7-------x-x-x-x-x-x----|
D|-6-6-6-6-6-x------x-x-6-6-6-6-6-x------x-x---6-6-6-6-6---------x-x-6-6-6-6----|
A|-x-x-x-x-x-x----------x-x-x-x-x-x------------5-5-5-5-5-------------5-5-5-5----|
E|-x-x-x-x-x-x----------x-x-x-x-x-x------------x-x-x-x-x-------------x-x-x-x----|

e|-x---------x-x-x-x-x-x-x---------x-x-x-x-x-x-x-x-x------------x-x-x-x-x-x-x---|
B|-x-5^------x-x-x-x-x-x-x-5^------x-x-x-x-x-x-x-x-x-6----------x-x-x-x-x-x-x---|
G|-x-7-------x-x-x-x-x-x-x-7-------x-x-x-x-x-x-x-x-x-x-7-7------x-x-x-x-x-x-x---|
D|-6---------x-x-6-6-6-6-6---------x-x-6-6-6-6-6-x-x-x-0-0-5-7--6-6-6-6-6-x-x---|
A|-5-------------5-5-5-5-5-------------5-5-5-5-5-----x-----x-x--5-5-5-5-5-------|
E|-x-------------x-x-x-x-x-------------x-x-x-x-x-----------x-x--x-x-x-x-x-------|

e|-----------x-x-x-x-x-x-x------------------------------x-x-13-13---------------|
B|-6---------x-x-x-x-x-x-x-6----------------------------x-x-------15-15---------|
G|-x-7-7-----x-x-x-x-x-x-x-x-7-7------13-13-13-13-13-13-x-x-x--x--x--x--12-14---|
D|-x-0-0-5-7-6-6-6-6-6-x-x-x-0-0-5-7--0--0--0--0--0--0--x-x-x--x--x--x--x--0----|
A|-x-----x-x-5-5-5-5-5-----x-----x-x--x--x--x--x--x--x------x--x--x--x--x-------|
E|-------x-x-x-x-x-x-x-----------x-x--x--x--x--x--x--x------x--x--x--x--x-------|
x2

e|----------------------x-x-13-13----------------------------------------13-13--|
B|----------------------x-x-------15-15-----------------------------------------|
G|-14-13-13-13-13-13-13-x-x-x--x--x--x--12-14-14-13-13-------13-13-------x--x---|
D|-0--0--0--0--0--0--0--x-x-x--x--x--x--x--0--0--x--x--12-12-x--x--12-12-x--x---|
A|----x--x--x--x--x--x------x--x--x--x--x--------x--x--x--x--x--x--x--x--x--x---|
E|----x--x--x--x--x--x------x--x--x--x--x--------x--x--x--x--x--x--x--x--x--x---|


e|-----------------------------------------13-13-15-15--------------------------|
B|-15-15---------------------------------------------------3-3------------------|
G|-x--x--12-14-14-13-13--------13-13-------x--x--x--x--x-x-2-2------------------|
D|-x--x--x--0--0--x--x--12-12--x--x--12-12-x--x--x--x--x-x-0-0------------------|
A|-x--x--x--------x--x--x--x---x--x--x--x--x--x--x--x--x-x----------------------|
E|-x--x--x--------x--x--x--x---x--x--x--x--x--x--x--x--x-x----------------------|

e|------------------------------------------------------------------------------|
B|------------------------------------------------------------------------------|
G|------------------------------------------------------------------------------|
D|------------------------------------------------------------------------------|
A|------------------------------------------------------------------------------|
E|------------------------------------------------------------------------------|

e|--------------3---------3---------3--------------3--------------3---------3---|
B|--------------3---------3---------3--------------3--------------3---------3---|
G|--------------0---------0---------0--------------0--------------0---------0---|
D|----------0---0---------0---------0--------------0--------------0---3--3------|
A|------------------0--0------1--1---------3--3---------------------------------|
E|----------3----------------------------------------------3--3-----------------|

e|-------3---------3--x-x-x-x-x-x-x-----------x-x-x-x-x-x-x-----------x-x-x-x---|
B|-------3---------3--x-x-x-x-x-x-x-6---------x-x-x-x-x-x-x-6---------x-x-x-x---|
G|-------0---------0--x-x-x-x-x-x-x-x-7-7-----x-x-x-x-x-x-x-x-7-7-----x-x-x-x---|
D|-2--2------1--1-----6-6-6-6-6-x-x-x-0-0-5-7-6-6-6-6-6-x-x-x-0-0-5-7-6-6-6-6---|
A|--------------------x-x-x-x-x-----x-----x-x-x-x-x-x-x-----x-----x-x-x-x-x-x---|
E|--------------------x-x-x-x-x-----------x-x-x-x-x-x-x-----------x-x-x-x-x-x---

e|-x-x-x-----------x-x-x-x-x-x-x------------------------------------------------|
B|-x-x-x-6---------x-x-x-x-x-x-x-6-6-------3-3----------------------------------|
G|-x-x-x-x-7-7-----x-x-x-x-x-x-x-x-x-7-7---2-2----------------------------------|
D|-6-x-x-x-0-0-5-7-6-6-6-6-6-x-x-x-x-0-0-5-0-0----------------------------------|
A|-x-----x-----x-x-x-x-x-x-x-----x-x-----x--------------------------------------|
E|-x-----------x-x-x-x-x-x-x-------------x--------------------------------------|

e|------------------------------------------------------------------------------|
B|------------------------------------------------------------------------------|
G|------------------------------------------------------------------------------|
D|------------------------------------------------------------------------------|
A|------------------------------------------------------------------------------|
E|------------------------------------------------------------------------------|

e|----------3---------3-----------3-------------------3------------3---------3--|
B|----------3---------3-----------3-------------------3------------3---------3--|
G|----------0---------0-----------0-------------------0------------0---------0--|
D|------0---0---------0-----------0-------------------0------------0---3--3-----|
A|--------------0--0------1--1----------------3--3------------------------------|
E|------3----------------------------------------------------3--3---------------|

e|-------3------3-3--------------1-1-1-1-1-1-1-2-2-2-2-2-2-2-2-2-3-3-3-3-3-3----|
B|-------3------3-3--------------3-3-3-3-3-3-3-3-3-3-3-3-3-3-3-3-3-3-3-3-3-3----|
G|-------0------0-0--------------2-2-2-2-2-2-2-2-2-2-2-2-2-2-2-2-3-3-3-3-3-3----|
D|-2--2------1-------------------0-0-0-0-0-0-0-0-0-0-0-0-0-0-0-0-0-0-0-0-0-0----|
A|------------------------------------------------------------------------------|
E|---------------------------------------------2-2-2-2-2-2-2-2-2-3-3-3-3-3-3----|

e|-3-3-3-3-3-3-3-3-3--3-1-1-1-1-1-1-1-2-2-2-2-2-2-2-2-2-3-3-3-3-3-3-3-3-3-3-3-3-|
B|-3-3-3-3-3-3-3-3-3--3-3-3-3-3-3-3-3-3-3-3-3-3-3-3-3-3-3-3-3-3-3-3-3-3-3-3-3-3-|
G|-3-3-3-3-3-3-3-3-3--3-2-2-2-2-2-2-2-2-2-2-2-2-2-2-2-2-3-3-3-3-3-3-3-3-3-3-3-3-|
D|-0-0-0-0-0-0-0-0-0--0-0-0-0-0-0-0-0-0-0-0-0-0-0-0-0-0-0-0-0-0-0-0-0-0-0-0-0-0-|
A|------------------------------------------------------------------------------|
E|-3-3-3-3-3-3-3-3-3--3---------------2-2-2-2-2-2-2-2-2-3-3-3-3-3-3-3-3-3-3-3-3-|

e|-3-3-3-3-1-1-1-1-1-1-1-2-2-2-2-2-2-2-2-2-3-3-3-3-3-3-3-3-3-3-3-3-3-3-3-3--1-1-|
B|-3-3-3-3-3-3-3-3-3-3-3-3-3-3-3-3-3-3-3-3-3-3-3-3-3-3-3-3-3-3-3-3-3-3-3-3--3-3-|
G|-3-3-3-3-2-2-2-2-2-2-2-2-2-2-2-2-2-2-2-2-3-3-3-3-3-3-3-3-3-3-3-3-3-3-3-3--2-2-|
D|-0-0-0-0-0-0-0-0-0-0-0-0-0-0-0-0-0-0-0-0-0-0-0-0-0-0-0-0-0-0-0-0-0-0-0-0--0-0-|
A|------------------------------------------------------------------------------|
E|-3-3-3-3---------------2-2-2-2-2-2-2-2-2-3-3-3-3-3-3-3-3-3-3-3-3-3-3-3-3------|

e|-1-1-1-1-1-2-2-2-2-2-2-2-2-2-3-3-3-3-3-3-3-3-3-3-3-3-3-3-3-3--x-x-x-x-x-------|
B|-3-3-3-3-3-3-3-3-3-3-3-3-3-3-3-3-3-3-3-3-3-3-3-3-3-3-3-3-3-3--x-x-x-x-x-5^----|
G|-2-2-2-2-2-2-2-2-2-2-2-2-2-2-3-3-3-3-3-3-3-3-3-3-3-3-3-3-3-3--x-x-x-x-x-7-----|
D|-0-0-0-0-0-0-0-0-0-0-0-0-0-0-0-0-0-0-0-0-0-0-0-0-0-0-0-0-0-0--6-6-6-6-6-------|
A|--------------------------------------------------------------5-5-5-5-5-------|
E|-----------2-2-2-2-2-2-2-2-2-3-3-3-3-3-3-3-3-3-3-3-3-3-3-3-3--x-x-x-x-x-------|

e|-x-x-x-x-x-x-x---------x-x-x-x-x-x-x---------x-x-x-x-x-x-x-----------x-x-x-x--|
B|-x-x-x-x-x-x-x-5^------x-x-x-x-x-x-x-5^------x-x-x-x-x-x-x-6---------x-x-x-x--|
G|-x-x-x-x-x-x-x-7-------x-x-x-x-x-x-x-7-------x-x-x-x-x-x-x-x-7-7-----x-x-x-x--|
D|-x-x-6-6-6-6-6---------x-x-6-6-6-6-6---------x-x-6-6-6-6-6-x-0-0-5-7-6-6-6-6--|
A|-----5-5-5-5-5-------------5-5-5-5-5-------------5-5-5-5-5-x-----x-x-5-5-5-5--|
E|-----x-x-x-x-x-------------x-x-x-x-x-------------x-x-x-x-x-------x-x-x-x-x-x--|

e|-x-----------x-x-x-x-x-----------------------------------13-13----------------|
B|-x-6---------x-x-x-x-x-6---------------------------------------15-15----------|
G|-x-x-7-7-----x-x-x-x-x-x-7-7-----13-13-------13-13-------x--x--x--x--12--14---|
D|-6-x-0-0-5-7-6-6-6-6-6-x-0-0-5-7-x--x--12-12-x--x--12-12-x--x--x--x--x---0----|
A|-5-x-----x-x-5-5-5-5-5-x-----x-x-x--x--x--x--x--x--x--x--x--x--x--x--x--------|
E|-x-------x-x-x-x-x-x-x-------x-x-x--x--x--x--x--x--x--x--x--x--x--x--x--------|

e|----------------------------13-13---------------------------------------------|
B|----------------------------------15-15-----3-3-------------------------------|
G|-14-13-13-------13-13-------x--x--x--x--x-x-2-2-------------------------------|
D|-0--x--x--12-12-x--x--12-12-x--x--x--x--x-x-0-0-------------------------------|
A|----x--x--x--x--x--x--x--x--x--x--x--x--x-x-----------------------------------|
E|----x--x--x--x--x--x--x--x--x--x--x--x--x-x-----------------------------------|

e|---------------------------------------------------------------------------3--|
B|---------------------------------------------------------------------------3--|
G|---------------------------------------------------------------------------0--|
D|----------------------------------------------------------------------0----0--|
A|------------------------------------------------------------------------------|
E|----------------------------------------------------------------------3-------|

e|-------3---------3---------3----------3---------3---------3---------3---------|
B|-------3---------3---------3----------3---------3---------3---------3--3--3---|
G|-------0---------0---------0----------0---------0---------0---------0--2--2---|
D|-------0---------0---------0----------0---3--3------2--2------1--1-----0--0---|
A|-0--0------1--1--------3-3----------------------------------------------------|
E|---------------------------------3--3-----------------------------------------|

e|------------------------------------------------------------------------------|
B|-3-----------------3--3-3-----------------3--3-3-----------------3--3-3-3-x---|
G|-2-----------------2--2-2-----------------2--2-2-----------------2--2-2-2-x---|
D|-0-3^-0------------0--0-0-3^-0------------0--0-0-3^-0------------0--0-0-0-x---|
A|--------------3--4-------------------3--4-------------------3--4--------------|
E|--------4--5-------------------4--5-------------------4--5--------------------|

e|------------------------------------------------------------------------------|
B|-x-------x-x------------------------------------------------------------------|
G|-x-------x-x------------------------------------------------------------------|
D|-x-10h12-x-x-10h12-12-12------------------------------------------------------|
A|------------------------------------------------------------------------------|
E|------------------------------------------------------------------------------|

e|----------------------------------------3---------3----------3----------------|
B|----------------------------------------3---------3----------3----------------|
G|----------------------------------------0---------0----------0----------------|
D|------------------------------------0---0---------0----------0----------------|
A|--------------------------------------------0--0------1--1--------------------|
E|------------------------------------3-----------------------------------------|

e|---------3------------3---------3---------3------3---1-1-1-1-1-1-1-2-2-2-2----|
B|---------3------------3---------3---------3------3---3-3-3-3-3-3-3-3-3-3-3----|
G|---------0------------0---------0---------0------0---2-2-2-2-2-2-2-2-2-2-2----|
D|---------0------------0---3--3------2--2------1------0-0-0-0-0-0-0-0-0-0-0----|
A|-3---3------------------------------------------------------------------------|
E|----------------3--3-----------------------------------------------2-2-2-2----|

e|-2-2-2-2-2-3-3-3-3-3-3-3-3-3-3-3-3-3-3-3--3-1-1-1-1-1-1-1-2-2-2-2-2-2-2-2-2---|
B|-3-3-3-3-3-3-3-3-3-3-3-3-3-3-3-3-3-3-3-3--3-3-3-3-3-3-3-3-3-3-3-3-3-3-3-3-3---|
G|-2-2-2-2-2-3-3-3-3-3-3-3-3-3-3-3-3-3-3-3--3-2-2-2-2-2-2-2-2-2-2-2-2-2-2-2-2---|
D|-0-0-0-0-0-0-0-0-0-0-0-0-0-0-0-0-0-0-0-0--0-0-0-0-0-0-0-0-0-0-0-0-0-0-0-0-0---|
A|------------------------------------------------------------------------------|
E|-2-2-2-2-2-3-3-3-3-3-3-3-3-3-3-3-3-3-3-3--3---------------2-2-2-2-2-2-2-2-2---|

e|-3-3-3-3-3-3-3-3-3-3-3-3-3-3-3-3-1-1-1-1-1-1-1-2-2-2-2-2-2-2-2-2-3-3-3-3-3-3--|
B|-3-3-3-3-3-3-3-3-3-3-3-3-3-3-3-3-3-3-3-3-3-3-3-3-3-3-3-3-3-3-3-3-3-3-3-3-3-3--|
G|-3-3-3-3-3-3-3-3-3-3-3-3-3-3-3-3-2-2-2-2-2-2-2-2-2-2-2-2-2-2-2-2-3-3-3-3-3-3--|
D|-0-0-0-0-0-0-0-0-0-0-0-0-0-0-0-0-0-0-0-0-0-0-0-0-0-0-0-0-0-0-0-0-0-0-0-0-0-0--|
A|------------------------------------------------------------------------------|
E|-3-3-3-3-3-3-3-3-3-3-3-3-3-3-3-3---------------2-2-2-2-2-2-2-2-2-3-3-3-3-3-3--|

e|-3-3-3-3-3-3-3-3-3-3-1-1-1-1-1-1-1-2-2-2-2-2-2-2-2-2-3-3-3-3-3-3-3-3-3-3-3-3--|
B|-3-3-3-3-3-3-3-3-3-3-3-3-3-3-3-3-3-3-3-3-3-3-3-3-3-3-3-3-3-3-3-3-3-3-3-3-3-3--|
G|-3-3-3-3-3-3-3-3-3-3-2-2-2-2-2-2-2-2-2-2-2-2-2-2-2-2-3-3-3-3-3-3-3-3-3-3-3-3--|
D|-0-0-0-0-0-0-0-0-0-0-0-0-0-0-0-0-0-0-0-0-0-0-0-0-0-0-0-0-0-0-0-0-0-0-0-0-0-0--|
A|------------------------------------------------------------------------------|
E|-3-3-3-3-3-3-3-3-3-3---------------2-2-2-2-2-2-2-2-2-3-3-3-3-3-3-3-3-3-3-3-3--|

e|-3-3-3---------------------0---------------0-------------------------------1--|
B|-3-3-3-3---------------3---------------3---------------------3-----3---3------|
G|-3-3-3-2-----------2-----2---2-2-2-2-2---2---2-2-2-2-2-2-2-2---2-2---2---2----|
D|-0-0-0-0-------------0-------0-0-0-0-0-------0-0-0-0-0-0-0-0---0-0------------|
A|------------------------------------------------------------------------------|
E|-3-3-3------------------------------------------------------------------------|

e|----------------------------------------------5---5----5---5---5-----5---5----|
B|------------------3---3---3---3----10----10---8---7----5---5---6-----6---6----|
G|--2-2-2-2-2-2-2-2---2---2---2---2--7-----7----7---7--7---7---7-7-7---7---7----|
D|--0-0-0-0-0-0-0-0------------------0---0----0------------------0---0---0------|
A|------------------------------------------------------------------------------|
E|------------------------------------------------------------------------------|

e|-5-----5---5---5-----5-------5-------------------------5--------10---10-------|
B|-6-----5---5---7-----7-------5-----------6---------------6------10---10-------|
G|-7---7---7---7-7-7---7---7-----7-6---5---4---------4-------4----7----7---7----|
D|---0-----------0---0---0---0-0-----0---0-0-------0---0-------0--0----0---0----|
A|------------------------------------------------------------------------------|
E|------------------------------------------------------------------------------|

e|------------------------------------------------------------------------------|
B|-8---7-------------------------------------------7----7-7-7--7-7--------------|
G|-7---7-----9p7-9p7-9^-----9^--9^--9^--9^--7------7----7-7-7--7-7--7------6----|
D|---0---0-0-0---0---0----0-0---0---0---0---0-0-0--0----0-0-0--0-0--x--x-x-x----|
A|---0---0-0----------------------------------0-0--0----0-0-0--0-0--x--x-x-x----|
E|------------------------------------------------------------------x--x-x-x----|

e|------------------------------1-1-----1-------10-10-----10--------------------|
B|------------6-----------------0-0-----0-------10-10-----10-----8--7-7---------|
G|-----5------4-------------0-0-0-0-----0-0-0-0-7--7------7------7--7-7---9p7---|
D|-x-x-x--x-x-0-------------0-0-0-0--0--0-0-0-0-0--0------0---0-----0-0-0-0-----|
A|-x-x-x--x-x-------------------------------------------------------------------|
E|-x-x-x--x-x------15/3--3-----------3--3-3-3-3--------7--7---------------------|

e|------------------------------------------------------------------------------|
B|-----------------------------------------------7---7-7-7--7-7-----------------|
G|-9/21--21^-21^-21^----21^--21^--21^-19---------7---7-7-7--7-7-7------6--------|
D|---------------------------------------19/-0---0---0-0-0--0-0-x--x-x-x--x-x---|
A|-------------------------------------------0---0---0-0-0--0-0-x--x-x-x--x-x---|
E|--------------------------------------------------------------x--x-x-x--x-x---|

e|------------------------1-1-----1---------------------------------------------|
B|--------6---------------0-0-----0-------3-------------------------------------|
G|-5------4------------0--0-0-----0-0-0-0-2-------------------------------------|
D|-x--x-x-0------------0--0-0--0--0-0-0-0-0-------------------------------------|
A|-x--x-x-----------------------------------------------------------------------|
E|-x--x-x-----15/3--3----------3--3-3-3-3---------------------------------------|


Go back to tablature