Assassin (tablature)

MuseWiki, wiki for the band Muse
Jump to: navigation, search
Muse Tab
Name Assassin
Length 03:31
Tuning Drop-D
Tempo 125bpm
Timing 4/4 (2/4 at some parts of the verse)

Guitar

h - hammer on
p - pull off 
b - bend string up a half step
^ - bend string up a quarter step
r - release bend
/ - slide up
\ - slide down
v - vibrato 
t - tap (with middle finger of strumming hand)
x - palm mute


Intro - Clean guitar

E------------------------|-------------------------|---------------------|
B-3-2-2-2-3-2-2-2-3-2-2--|-3-2-2-2-3-2-2-2-3-2-2---|-4-3-3-4-3-3-4-3-3---|
G-3-2-2-2-3-2-2-2-3-2-2--|-3-2-2-2-3-2-2-2-3-2-2---|-3-0-0-3-0-0-3-0-0---|
D------------------------|-------------------------|---------------------|
A------------------------|-------------------------|---------------------|
D------------------------|-------------------------|---------------------|

E------------------------|
B-4-3-3-4-3-3-4-3-3------|
G-3-0-0-3-0-0-3-0-0------|
D------------------------|
A------------------------|
D------------------------|

Main riff

Guitar 1 - Heavy distortion

E------------------------|------------------------|------------------------|
B------------------------|------------------------|------------------------|
G------------------------|------------------------|------------------------|
D------------------------|------------------------|------------------------|
A------------------------|------------------------|------------------------|
D-8-7-7-7-8-7-7-8-7-7----|-8-7-7-7-8-7-7-8-7-7----|-8-5-5-5-8-5-5-8-5-5----|

E------------------------|
B------------------------|
G------------------------|  riff x2
D------------------------|
A------------------------|
D-8-5-5-5-8-5-5-8-5-5----|

Guitar 2 - Clean

E---------------------------------|------------------------|
B-10-11-10-11-10---10-11-10-11-10-|-8-8-8-8-8--8-8-8-8-8---|
G---------------------------------|------------------------| riff x2
D---------------------------------|------------------------|
A---------------------------------|------------------------|
D---------------------------------|------------------------|

Bridge

Drum fill for 4 beats, then into this, with the usual heavy distortion.

E------------------------|------------------------|------------------------|
B------------------------|------------------------|------------------------|
G------------------------|------------------------|------------------------|
D------------------------|------------------------|------------------------|
A------------------------|------------------------|------------------------|
D-8-0-0-0-8-0-0-0-8-0-0--|-8-0-0-0-8-0-0-0-8-0-0--|-8-0-0-0-8-0-0-0-8-0-0--|

E------------------------|
B------------------------|
G------------------------| riff x2
D-----------------8-8-8--|
A-----------------8-8-8--|
D-8-0-0-0-8-0-0-0-8-8-8--|

Verse

(This isn't thoroughly accurate, as the changes between patterns are not as uniform, but listen to the track and you'll get it.)

E------------------------|------------------------|------------------------|
B------------------------|------------------------|------------------------|
G------------------------|------------------------|------------------------|
D------------------------|------------------------|------------------------|
A-8-5-5-5-8-5-5-5-8-5-5--|-8-5-5-5-8-5-5-5-8-5-5--|-8-7-7-7-8-7-7-7-8-7-7--|
D------------------------|------------------------|------------------------|

E------------------------|--------------------------------|--------------------------------|
B------------------------|--------------------------------|--------------------------------|
G------------------------|--------------------------------|--------------------------------|
D------------------------|--------------------------------|--------------------------------|
A-8-7-7-7-8-7-7-7-8-7-7--|-8-10-10-10-8-10-10-10-8-10-10--|-8-10-10-10-8-10-10-10-8-10-10--|
D------------------------|--------------------------------|--------------------------------|

E-----------------------------------|-----------------------------------|
B-----------------------------------|-----------------------------------|
G-----------------------------------|-----------------------------------| riff x2
D-----------------------------------|-----------------------------------|
A-10-12-12-12-10-12-12-12-10-12-12--|-10-12-12-12-10-12-12-12-10-12-12--|
D-----------------------------------|-----------------------------------|

Chorus

E------------------------|------------------------|------------------------|
B------------------------|------------------------|------------------------|
G------------------------|------------------------|------------------------|
D------------------------|------------------------|------------------------|
A------------------------|------------------------|------------------------|
D-7-3-3-3-7-3-3-3-7-3-3--|-7-3-3-3-7-3-3-3-7-3-3--|-7-3-3-3-7-3-3-3-7-3-3--|

E--------------------------------|------------------------|------------------------|
B--------------------------------|------------------------|------------------------|
G--------------------------------|------------------------|------------------------|
D--------------------------------|------------------------|------------------------|
A--------------------------------|------------------------|------------------------|
D-9-10-10-10-9-10-10-10-9-10-10--|-8-5-5-5-8-5-5-5-8-5-5--|-8-5-5-5-8-5-5-5-8-5-5--|

E------------------------|------------------------|
B------------------------|------------------------|
G------------------------|------------------------| riff x2
D------------------------|------------------------|
A------------------------|------------------------|
D-8-5-5-5-8-5-5-5-8-5-5--|-8-0-0-0-8-0-0-0-8-0-0--|

Bass

Intro
G--------------------------------------------------|   (Sixteenth notes)
D--------------------------------------------------|   x2
A--------------------------------------------------|   (Listen to it. Basically hit 8. fret one time, then 7. fret five times,
D-877777877787877777877787855555855585855555855585-|   so that it's 6 hits on the string in total. Repeated w. slight changes)

G|------------------------------------------------------------------|
D|------------------------------------------------------------------|   x2
A|------------------------------------------------------------------|
D|-00000-x-00000x0-00000-x-00000x0-00000-x-00000x0-00000-x-00008888-|


Chorus (x2)
G|----------------------------------------------------------------------------------------------------legato slide.
D|------------------------------------------------------------------------55555x5535x-55-x55555x5535x-55-x55555x55/
A|-55555x5535x-55-x55555x5535x-55-x55555x5533333x3313x-33-x33333x3313x-33\-----------------------------------------
D|------------------------------------------------------Sixteenth note/--\Quarter note+sixteenth slide-------------

G----------------------------------|
D----------------------------------|
A-55555x5535x-55-x55555x5535x-55-x-|
D----------------------------------|

Verse
G----------------------------------------------------------------|
D----------------------------------------------------------------|
A-------------------------------------------------33333x3313x-33-|
D-33333x3313x-33-x33333x3313x-33-x33333x3313x-33-x---------------|

G----------------------------------------------------------------|
D----------------------------------------------------------------|
A----------------------------------------------------------------|
D-55555x5535x-55-x55555x5535x-55-x55555x5535x-55-x00000x0000x-00-|

G----------------------------------------------------------------|
D----------------------------------------------------------------|
A-------------------------------------------------33333x3313x-33-|
D-33333x3313x-33-x33333x3313x-33-x33333x3313x-33-x---------------|

G----------------------------------------------------------------|
D----------------------------------------------------------------|
A-------------------------------------------------55555x5535x-55-|
D-55555x5535x-55-x55555x5535x-55-x55555x5535x-55-x---------------|

Pre-chorus
G--------------------------------------------------|
D--------------------------------------------------|
A--------------------------------------------------|
D-877777877787877777877787855555855585855555855585-|

G--------------------------------------------------|
D--------------------------------------------------|
A--------------------------------------------------|
D-877777877787877777877787855555855585000000000000-|

G|------------------------------------------------------------------|
D|------------------------------------------------------------------|   x2
A|------------------------------------------------------------------|
D|-00000-x-00000x0-00000-x-00000x0-00000-x-00000x0-00000-x-00008888-|


~CHORUS~ (x1)
~VERSE~ (x1)

Post-verse
G---------------------------------|
D---------------------------------|
A---------------------------------|
D-0000000000000000----------------|

Outro
G--------------------------------------------------|
D--------------------------------------------------|   x2
A--------------------------------------------------| 
D-877777877787877777877787855555855585855555855585-|

G----------|
D----------|
A----------|
D-0~--x----|

This song almost hurt my stomach to tab (with the rhythms and all) so please gimme a break if u don't get it at once :p 
Put it in in GuitarPro and you'll see it fit perfectly. It's not a very "logical" rhythm! Good luck :D

Debase Mason's Grog Guitar

Intro

e|--------------------------x-x-x-x-------------------------x-x-x-x-|
B|--------------------------x-x-x-x-------------------------x-x-x-x-|
G|--------------------------x-x-x-x-------------------------x-x-x-x-|
D|--------------------------x-x-x-x-------------------------x-x-x-x-|
A|--------------------------x-x-x-x-------------------------x-x-x-x-|-|
D|--8-7-7-7-7-7-8-7-7-7-7-7-x-x-x-x-8-7-7-7-7-7-8-7-7-7-7-7-x-x-x-x-| |
                                                                      |-4x (Drums come in on 3rd repetition)
e|--------------------------x-x-x-x-------------------------x-x-x-x-| |
B|--------------------------x-x-x-x-------------------------x-x-x-x-|-|
G|--------------------------x-x-x-x-------------------------x-x-x-x-|
D|--------------------------x-x-x-x-------------------------x-x-x-x-|
A|--------------------------x-x-x-x-------------------------x-x-x-x-|
D|--8-5-5-5-5-5-8-5-5-5-5-5-x-x-x-x-8-5-5-5-5-5-8-5-5-5-5-5-x-x-x-x-|

e|-x-x-x-x-x-x-x-x-x-x-x-x-x-x-x-x-|
B|-x-x-x-x-x-x-x-x-x-x-x-x-x-x-x-x-|
G|-x-x-x-x-x-x-x-x-x-x-x-x-x-x-x-x-|
D|-x-x-x-x-x-x-x-x-x-x-x-x-x-x-x-x-|
A|-x-x-x-x-x-x-x-x-x-x-x-x-x-x-x-x-|
D|-x-x-x-x-x-x-x-x-x-x-x-x-x-x-x-x-|

e|------------------------------------------------------------------|
B|------------------------------------------------------------------|
G|------------------------------------------------------------------|
D|------------------------------------------------------------------|
A|------------------------------------------------------------------|-|
D|--8-0-0-0-0-0-8-0-0-0-0-0-8-0-0-0-8-0-0-0-0-0-8-0-0-0-0-0-8-0-0-0-| |
                                                                      |-2x
e|------------------------------------------------------x-x-x-x-x-x-| |
B|------------------------------------------------------x-x-x-x-x-x-|-|
G|------------------------------------------------------x-x-x-x-x-x-|
D|------------------------------------------------------x-x-x-x-x-x-|
A|------------------------------------------------------x-x-x-x-x-x-|
D|--8-0-0-0-0-0-8-0-0-0-0-0-8-0-0-0-8-0-0-0-0-0-8-0-0-0-x-x-x-x-x-x-|

Verse

e|--------------------------------------------------------------|
B|--------------------------------------------------------------|
G|--14-14-14-14-14-14-14-14-14-14-14-14-14-14-14-14-10-10-10-10-|
D|--------------------------------------------------------------|
A|--------------------------------------------------------------|
D|--------------------------------------------------------------|

e|---------------------------------------------------------------|
B|---------------------------------------------------------------|
G|--10-10 -10-10-14-14-14-14-14-14-14-14-12-12-12-12-12-12-12-12-|
D|---------------------------------------------------------------|
A|---------------------------------------------------------------|
D|---------------------------------------------------------------|

e|--------------------------------------------------------------|
B|--------------------------------------------------------------|
G|--12-12-12-12-12-12-12-12-12-12-12-12-12-12-12-12-12-12-12-12-|
D|--------------------------------------------------------------|
A|--------------------------------------------------------------|
D|--------------------------------------------------------------|

e|--------------------------------------------------------------|
B|--------------------------------------------------------------|
G|--12-12-12-12-12-12-12-12-12-12-12-12-12-12-12-12-12-12-12-12-|
D|--------------------------------------------------------------|
A|--------------------------------------------------------------|
D|--------------------------------------------------------------|

e|---------------------------------------------------------------|
B|---------------------------------------------------------------|
G|--7-7-7-7-7-7-7-7-12-12-12-12-12-12-12-12-10-10-10-10-10-10-10-|
D|---------------------------------------------------------------|
A|---------------------------------------------------------------|
D|---------------------------------------------------------------|

e|--------------------------------------------------------------|
B|--------------------------------------------------------------|
G|--10-10-10-10-10-10-10-10-10-10-10-10-10-10-10-10-10-10-10-10-|
D|--------------------------------------------------------------|
A|--------------------------------------------------------------|
D|--------------------------------------------------------------|

e|-------------------------------------------------------------|
B|-------------------------------------------------------------|
G|--10-10-10-10-10---------------------------------------------|
D|-------------------------------------------------------------|
A|-------------------------------------------------------------|
D|-------------------------------------------------------------|


Bridge
(Play octaves)
e|-------------------------------------------------------------------------|
B|-------------------------------------------------------------------------|
G|-------------------------------------------------------------------------|
D|--3-3-3-3-3-3-3-3-3-3-3-3-3-3-3-3-3-3-3-3-3-3-3-3-10-10-10-10-10-10-10-10|
A|--3-3-3-3-3-3-3-3-3-3-3-3-3-3-3-3-3-3-3-3-3-3-3-3-10-10-10-10-10-10-10-10|
D|--3-3-3-3-3-3-3-3-3-3-3-3-3-3-3-3-3-3-3-3-3-3-3-3-10-10-10-10-10-10-10-10|

e|-------------------------------------------------------------------|
B|-------------------------------------------------------------------|
G|-------------------------------------------------------------------|
D|--5-5-5-5-5-5-5-5-5-5-5-5-5-5-5-5-5-5-5-5-5-5-5-5-0-0-0-0-0-0-0-0--|
A|--5-5-5-5-5-5-5-5-5-5-5-5-5-5-5-5-5-5-5-5-5-5-5-5-0-0-0-0-0-0-0-0--|
D|--5-5-5-5-5-5-5-5-5-5-5-5-5-5-5-5-5-5-5-5-5-5-5-5-0-0-0-0-0-0-0-0--|


Refrain

e|--------------------------x-x-x-x-------------------------x-x-x-x-|
B|--------------------------x-x-x-x-------------------------x-x-x-x-|
G|--------------------------x-x-x-x-------------------------x-x-x-x-|
D|--------------------------x-x-x-x-------------------------x-x-x-x-|
A|--------------------------x-x-x-x-------------------------x-x-x-x-|-|
D|--8-7-7-7-7-7-8-7-7-7-7-7-x-x-x-x-8-7-7-7-7-7-8-7-7-7-7-7-x-x-x-x-| |
                                                                      |-2x
e|--------------------------x-x-x-x-------------------------x-x-x-x-| |
B|--------------------------x-x-x-x-------------------------x-x-x-x-|-|
G|--------------------------x-x-x-x-------------------------x-x-x-x-|
D|--------------------------x-x-x-x-------------------------x-x-x-x-|
A|--------------------------x-x-x-x-------------------------x-x-x-x-|
D|--8-5-5-5-5-5-8-5-5-5-5-5-x-x-x-x-8-5-5-5-5-5-8-5-5-5-5-5-x-x-x-x-|

e|-x-x-x-x-x-x-x-x-x-x-x-x-x-x-x-x-|
B|-x-x-x-x-x-x-x-x-x-x-x-x-x-x-x-x-|
G|-x-x-x-x-x-x-x-x-x-x-x-x-x-x-x-x-|
D|-x-x-x-x-x-x-x-x-x-x-x-x-x-x-x-x-|
A|-x-x-x-x-x-x-x-x-x-x-x-x-x-x-x-x-|
D|-x-x-x-x-x-x-x-x-x-x-x-x-x-x-x-x-|

e|------------------------------------------------------------------|
B|------------------------------------------------------------------|
G|------------------------------------------------------------------|
D|------------------------------------------------------------------|
A|------------------------------------------------------------------|-|
D|--8-0-0-0-0-0-8-0-0-0-0-0-8-0-0-0-8-0-0-0-0-0-8-0-0-0-0-0-8-0-0-0-| |
                                                                      |-2x
e|------------------------------------------------------x-x-x-x-x-x-| |
B|------------------------------------------------------x-x-x-x-x-x-|-|
G|------------------------------------------------------x-x-x-x-x-x-|
D|------------------------------------------------------x-x-x-x-x-x-|
A|------------------------------------------------------x-x-x-x-x-x-|
D|--8-0-0-0-0-0-8-0-0-0-0-0-8-0-0-0-8-0-0-0-0-0-8-0-0-0-x-x-x-x-x-x-|


Mini-solo (most likely wrong)

e|-----------------------------|
B|-----------------------------|
G|--h10p0h10p0h7p0h9p0h9p0h7---|
D|-----------------------------|
A|-----------------------------|
D|-----------------------------|


Breakdown

e|----------------------------------------------------|
B|----------------------------------------------------|
G|----------------------------------------------------|
D|--0---0-0-0---3---8-8-8-7--0---0-0-0---3---8-8-8-7--| x2------|
A|--0---0-0-0---3---8-8-8-7--0---0-0-0---3---8-8-8-7--|         |
D|--0---0-0-0---3---8-8-8-7--0---0-0-0---3---8-8-8-7--|         |
                                                                |-x2
e|-----------------------------------------------------|        |
B|-----------------------------------------------------|        |
G|-----------------------------------------------------|        |
D|--7-7---------------------7-7------------------------| x2-----|
A|--7-7----7--8-7-8-8b------7-7----7--8-7-8-8b---------|
D|--7-7---------------------7-7------------------------|

(Vocals start here)
e|-------------------------------------------------------------------------|
B|-------------------------------------------------------------------------|
G|-------------------------------------------------------------------------|
D|7-7-7-7-7-7-7-7-7-7-7-7-7-7-7-7-7-7-7-7-8-8-8-8-8-8-8-8-8-8-8-8-8-8-8-8--| x2
A|7-7-7-7-7-7-7-7-7-7-7-7-7-7-7-7-7-7-7-7-8-8-8-8-8-8-8-8-8-8-8-8-8-8-8-8--|
D|7-7-7-7-7-7-7-7-7-7-7-7-7-7-7-7-7-7-7-7-8-8-8-8-8-8-8-8-8-8-8-8-8-8-8-8--|

e|-----------------------------------------------------------------------|
B|-----------------------------------------------------------------------|
G|-----------------------------------------------------------------------|
D|--5-5-5-5-5-5-5-5-5-5-5-5-5-5-5-5-7-7-7-7-7-7-7-7-7--------------7-7-7-|
A|--5-5-5-5-5-5-5-5-5-5-5-5-5-5-5-5-7-7-7-7-7-7-7-7-7--------------7-7-7-|
D|--5-5-5-5-5-5-5-5-5-5-5-5-5-5-5-5-7-7-7-7-7-7-7-7-7--------------7-7-7-|
                                                    |
                                                Let Ring

Bridge

e|------------------------------------------------------------------|
B|------------------------------------------------------------------|
G|------------------------------------------------------------------|
D|------------------------------------------------------------------|
A|------------------------------------------------------------------|-|
D|--8-0-0-0-0-0-8-0-0-0-0-0-8-0-0-0-8-0-0-0-0-0-8-0-0-0-0-0-8-0-0-0-| |
                                                                      |-2x
e|------------------------------------------------------x-x-x-x-x-x-| |
B|------------------------------------------------------x-x-x-x-x-x-|-|
G|------------------------------------------------------x-x-x-x-x-x-|
D|------------------------------------------------------x-x-x-x-x-x-|
A|------------------------------------------------------x-x-x-x-x-x-|
D|--8-0-0-0-0-0-8-0-0-0-0-0-8-0-0-0-8-0-0-0-0-0-8-0-0-0-x-x-x-x-x-x-|


Verse

e|--------------------------------------------------------------|
B|--------------------------------------------------------------|
G|--14-14-14-14-14-14-14-14-14-14-14-14-14-14-14-14-10-10-10-10-|
D|--------------------------------------------------------------|
A|--------------------------------------------------------------|
D|--------------------------------------------------------------|

e|---------------------------------------------------------------|
B|---------------------------------------------------------------|
G|--10-10 -10-10-14-14-14-14-14-14-14-14-12-12-12-12-12-12-12-12-|
D|---------------------------------------------------------------|
A|---------------------------------------------------------------|
D|---------------------------------------------------------------|

e|--------------------------------------------------------------|
B|--------------------------------------------------------------|
G|--12-12-12-12-12-12-12-12-12-12-12-12-12-12-12-12-12-12-12-12-|
D|--------------------------------------------------------------|
A|--------------------------------------------------------------|
D|--------------------------------------------------------------|

e|--------------------------------------------------------------|
B|--------------------------------------------------------------|
G|--12-12-12-12-12-12-12-12-12-12-12-12-12-12-12-12-12-12-12-12-|
D|--------------------------------------------------------------|
A|--------------------------------------------------------------|
D|--------------------------------------------------------------|

e|---------------------------------------------------------------|
B|---------------------------------------------------------------|
G|--7-7-7-7-7-7-7-7-12-12-12-12-12-12-12-12-10-10-10-10-10-10-10-|
D|---------------------------------------------------------------|
A|---------------------------------------------------------------|
D|---------------------------------------------------------------|

e|--------------------------------------------------------------|
B|--------------------------------------------------------------|
G|--10-10-10-10-10-10-10-10-10-10-10-10-10-10-10-10-10-10-10-10-|
D|--------------------------------------------------------------|
A|--------------------------------------------------------------|
D|--------------------------------------------------------------|

e|-------------------------------------------------------------|
B|-------------------------------------------------------------|
G|--10-10-10-10-10---------------------------------------------|
D|-------------------------------------------------------------|
A|-------------------------------------------------------------|
D|-------------------------------------------------------------|


Bridge
(Play octaves)
e|-------------------------------------------------------------------------|
B|-------------------------------------------------------------------------|
G|-------------------------------------------------------------------------|
D|--3-3-3-3-3-3-3-3-3-3-3-3-3-3-3-3-3-3-3-3-3-3-3-3-10-10-10-10-10-10-10-10|
A|--3-3-3-3-3-3-3-3-3-3-3-3-3-3-3-3-3-3-3-3-3-3-3-3-10-10-10-10-10-10-10-10|
D|--3-3-3-3-3-3-3-3-3-3-3-3-3-3-3-3-3-3-3-3-3-3-3-3-10-10-10-10-10-10-10-10|

e|-------------------------------------------------------------------|
B|-------------------------------------------------------------------|
G|-------------------------------------------------------------------|
D|--5-5-5-5-5-5-5-5-5-5-5-5-5-5-5-5-5-5-5-5-5-5-5-5-0-0-0-0-0-0-0-0--|
A|--5-5-5-5-5-5-5-5-5-5-5-5-5-5-5-5-5-5-5-5-5-5-5-5-0-0-0-0-0-0-0-0--|
D|--5-5-5-5-5-5-5-5-5-5-5-5-5-5-5-5-5-5-5-5-5-5-5-5-0-0-0-0-0-0-0-0--|


Outro

e|--------------------------x-x-x-x-------------------------x-x-x-x-|
B|--------------------------x-x-x-x-------------------------x-x-x-x-|
G|--------------------------x-x-x-x-------------------------x-x-x-x-|
D|--------------------------x-x-x-x-------------------------x-x-x-x-|
A|--------------------------x-x-x-x-------------------------x-x-x-x-|-|
D|--8-7-7-7-7-7-8-7-7-7-7-7-x-x-x-x-8-7-7-7-7-7-8-7-7-7-7-7-x-x-x-x-| |
                                                                      |-2x
e|--------------------------x-x-x-x-------------------------x-x-x-x-| |
B|--------------------------x-x-x-x-------------------------x-x-x-x-|-|
G|--------------------------x-x-x-x-------------------------x-x-x-x-|
D|--------------------------x-x-x-x-------------------------x-x-x-x-|
A|--------------------------x-x-x-x-------------------------x-x-x-x-|
D|--8-5-5-5-5-5-8-5-5-5-5-5-x-x-x-x-8-5-5-5-5-5-8-5-5-5-5-5-x-x-x-x-|

e|-x-x-x-x-x-x-x-x-x-x-x-x-x-x-x-x-|
B|-x-x-x-x-x-x-x-x-x-x-x-x-x-x-x-x-|
G|-x-x-x-x-x-x-x-x-x-x-x-x-x-x-x-x-|
D|-x-x-x-x-x-x-x-x-x-x-x-x-x-x-x-x-|
A|-x-x-x-x-x-x-x-x-x-x-x-x-x-x-x-x-|
D|-x-x-x-x-x-x-x-x-x-x-x-x-x-x-x-x-|

e|-----|
B|-----|
G|-----|
D|--0--|
A|--0--|
D|--0--|


Go back to tablature